  0
SECTION
  2
HEADER
  9
$ACADVER
  1
AC1015
  9
$ACADMAINTVER
 70
    20
  9
$DWGCODEPAGE
  3
ANSI_936
  9
$INSBASE
 10
0.0
 20
0.0
 30
0.0
  9
$EXTMIN
 10
2461.407442422353
 20
999.699852153846
 30
0.0
  9
$EXTMAX
 10
2947.561911605857
 20
1459.932498696044
 30
0.0
  9
$LIMMIN
 10
0.0
 20
0.0
  9
$LIMMAX
 10
420.0
 20
297.0
  9
$ORTHOMODE
 70
     1
  9
$REGENMODE
 70
     1
  9
$FILLMODE
 70
     1
  9
$QTEXTMODE
 70
     0
  9
$MIRRTEXT
 70
     0
  9
$LTSCALE
 40
1.0
  9
$ATTMODE
 70
     1
  9
$TEXTSIZE
 40
2.5
  9
$TRACEWID
 40
1.0
  9
$TEXTSTYLE
  7
Standard
  9
$CLAYER
  8
0
  9
$CELTYPE
  6
ByLayer
  9
$CECOLOR
 62
   256
  9
$CELTSCALE
 40
1.0
  9
$DISPSILH
 70
     0
  9
$DIMSCALE
 40
1.0
  9
$DIMASZ
 40
2.5
  9
$DIMEXO
 40
0.625
  9
$DIMDLI
 40
3.75
  9
$DIMRND
 40
0.0
  9
$DIMDLE
 40
0.0
  9
$DIMEXE
 40
1.25
  9
$DIMTP
 40
0.0
  9
$DIMTM
 40
0.0
  9
$DIMTXT
 40
2.5
  9
$DIMCEN
 40
2.5
  9
$DIMTSZ
 40
0.0
  9
$DIMTOL
 70
     0
  9
$DIMLIM
 70
     0
  9
$DIMTIH
 70
     0
  9
$DIMTOH
 70
     0
  9
$DIMSE1
 70
     0
  9
$DIMSE2
 70
     0
  9
$DIMTAD
 70
     1
  9
$DIMZIN
 70
     8
  9
$DIMBLK
  1

  9
$DIMASO
 70
     1
  9
$DIMSHO
 70
     1
  9
$DIMPOST
  1

  9
$DIMAPOST
  1

  9
$DIMALT
 70
     0
  9
$DIMALTD
 70
     3
  9
$DIMALTF
 40
0.03937007874016
  9
$DIMLFAC
 40
1.0
  9
$DIMTOFL
 70
     1
  9
$DIMTVP
 40
0.0
  9
$DIMTIX
 70
     0
  9
$DIMSOXD
 70
     0
  9
$DIMSAH
 70
     0
  9
$DIMBLK1
  1

  9
$DIMBLK2
  1

  9
$DIMSTYLE
  2
ISO-25
  9
$DIMCLRD
 70
     0
  9
$DIMCLRE
 70
     0
  9
$DIMCLRT
 70
     0
  9
$DIMTFAC
 40
1.0
  9
$DIMGAP
 40
0.625
  9
$DIMJUST
 70
     0
  9
$DIMSD1
 70
     0
  9
$DIMSD2
 70
     0
  9
$DIMTOLJ
 70
     0
  9
$DIMTZIN
 70
     8
  9
$DIMALTZ
 70
     0
  9
$DIMALTTZ
 70
     0
  9
$DIMUPT
 70
     0
  9
$DIMDEC
 70
     2
  9
$DIMTDEC
 70
     2
  9
$DIMALTU
 70
     2
  9
$DIMALTTD
 70
     3
  9
$DIMTXSTY
  7
Standard
  9
$DIMAUNIT
 70
     0
  9
$DIMADEC
 70
     0
  9
$DIMALTRND
 40
0.0
  9
$DIMAZIN
 70
     0
  9
$DIMDSEP
 70
    44
  9
$DIMATFIT
 70
     3
  9
$DIMFRAC
 70
     0
  9
$DIMLDRBLK
  1

  9
$DIMLUNIT
 70
     2
  9
$DIMLWD
 70
    -2
  9
$DIMLWE
 70
    -2
  9
$DIMTMOVE
 70
     0
  9
$LUNITS
 70
     2
  9
$LUPREC
 70
     4
  9
$SKETCHINC
 40
1.0
  9
$FILLETRAD
 40
10.0
  9
$AUNITS
 70
     0
  9
$AUPREC
 70
     0
  9
$MENU
  1
.
  9
$ELEVATION
 40
0.0
  9
$PELEVATION
 40
0.0
  9
$THICKNESS
 40
0.0
  9
$LIMCHECK
 70
     0
  9
$CHAMFERA
 40
0.0
  9
$CHAMFERB
 40
0.0
  9
$CHAMFERC
 40
0.0
  9
$CHAMFERD
 40
0.0
  9
$SKPOLY
 70
     0
  9
$TDCREATE
 40
2458060.606041667
  9
$TDUCREATE
 40
2458060.272710104
  9
$TDUPDATE
 40
2458186.453958334
  9
$TDUUPDATE
 40
2458186.120625000
  9
$TDINDWG
 40
0.2361629630
  9
$TDUSRTIMER
 40
0.2361601273
  9
$USRTIMER
 70
     1
  9
$ANGBASE
 50
0.0
  9
$ANGDIR
 70
     0
  9
$PDMODE
 70
     0
  9
$PDSIZE
 40
0.0
  9
$PLINEWID
 40
0.0
  9
$SPLFRAME
 70
     0
  9
$SPLINETYPE
 70
     6
  9
$SPLINESEGS
 70
     8
  9
$HANDSEED
  5
2ADD
  9
$SURFTAB1
 70
     6
  9
$SURFTAB2
 70
     6
  9
$SURFTYPE
 70
     6
  9
$SURFU
 70
     6
  9
$SURFV
 70
     6
  9
$UCSBASE
  2

  9
$UCSNAME
  2

  9
$UCSORG
 10
0.0
 20
0.0
 30
0.0
  9
$UCSXDIR
 10
1.0
 20
0.0
 30
0.0
  9
$UCSYDIR
 10
0.0
 20
1.0
 30
0.0
  9
$UCSORTHOREF
  2

  9
$UCSORTHOVIEW
 70
     0
  9
$UCSORGTOP
 10
0.0
 20
0.0
 30
0.0
  9
$UCSORGBOTTOM
 10
0.0
 20
0.0
 30
0.0
  9
$UCSORGLEFT
 10
0.0
 20
0.0
 30
0.0
  9
$UCSORGRIGHT
 10
0.0
 20
0.0
 30
0.0
  9
$UCSORGFRONT
 10
0.0
 20
0.0
 30
0.0
  9
$UCSORGBACK
 10
0.0
 20
0.0
 30
0.0
  9
$PUCSBASE
  2

  9
$PUCSNAME
  2

  9
$PUCSORG
 10
0.0
 20
0.0
 30
0.0
  9
$PUCSXDIR
 10
1.0
 20
0.0
 30
0.0
  9
$PUCSYDIR
 10
0.0
 20
1.0
 30
0.0
  9
$PUCSORTHOREF
  2

  9
$PUCSORTHOVIEW
 70
     0
  9
$PUCSORGTOP
 10
0.0
 20
0.0
 30
0.0
  9
$PUCSORGBOTTOM
 10
0.0
 20
0.0
 30
0.0
  9
$PUCSORGLEFT
 10
0.0
 20
0.0
 30
0.0
  9
$PUCSORGRIGHT
 10
0.0
 20
0.0
 30
0.0
  9
$PUCSORGFRONT
 10
0.0
 20
0.0
 30
0.0
  9
$PUCSORGBACK
 10
0.0
 20
0.0
 30
0.0
  9
$USERI1
 70
     0
  9
$USERI2
 70
     0
  9
$USERI3
 70
     0
  9
$USERI4
 70
     0
  9
$USERI5
 70
     0
  9
$USERR1
 40
0.0
  9
$USERR2
 40
0.0
  9
$USERR3
 40
0.0
  9
$USERR4
 40
0.0
  9
$USERR5
 40
0.0
  9
$WORLDVIEW
 70
     1
  9
$SHADEDGE
 70
     3
  9
$SHADEDIF
 70
    70
  9
$TILEMODE
 70
     1
  9
$MAXACTVP
 70
    64
  9
$PINSBASE
 10
0.0
 20
0.0
 30
0.0
  9
$PLIMCHECK
 70
     0
  9
$PEXTMIN
 10
0.0
 20
0.0
 30
0.0
  9
$PEXTMAX
 10
0.0
 20
0.0
 30
0.0
  9
$PLIMMIN
 10
0.0
 20
0.0
  9
$PLIMMAX
 10
12.0
 20
9.0
  9
$UNITMODE
 70
     0
  9
$VISRETAIN
 70
     1
  9
$PLINEGEN
 70
     0
  9
$PSLTSCALE
 70
     1
  9
$TREEDEPTH
 70
  3020
  9
$CMLSTYLE
  2
Standard
  9
$CMLJUST
 70
     0
  9
$CMLSCALE
 40
20.0
  9
$PROXYGRAPHICS
 70
     1
  9
$MEASUREMENT
 70
     1
  9
$CELWEIGHT
370
    -1
  9
$ENDCAPS
280
     0
  9
$JOINSTYLE
280
     0
  9
$LWDISPLAY
290
     0
  9
$INSUNITS
 70
     4
  9
$HYPERLINKBASE
  1

  9
$STYLESHEET
  1

  9
$XEDIT
290
     1
  9
$CEPSNTYPE
380
     0
  9
$PSTYLEMODE
290
     1
  9
$FINGERPRINTGUID
  2
{B94BDAF2-68BD-421D-8D9C-A77CBDB7EA45}
  9
$VERSIONGUID
  2
{702CFBC0-837C-3E41-82DD-9EDC6AF9DB1A}
  9
$EXTNAMES
290
     1
  9
$PSVPSCALE
 40
0.0
  9
$OLESTARTUP
290
     0
  0
ENDSEC
  0
SECTION
  2
CLASSES
  0
CLASS
  1
ACDBDICTIONARYWDFLT
  2
AcDbDictionaryWithDefault
  3
ObjectDBX Classes
 90
        0
280
     0
281
     0
  0
CLASS
  1
ACDBPLACEHOLDER
  2
AcDbPlaceHolder
  3
ObjectDBX Classes
 90
        0
280
     0
281
     0
  0
CLASS
  1
LAYOUT
  2
AcDbLayout
  3
ObjectDBX Classes
 90
        0
280
     0
281
     0
  0
CLASS
  1
DICTIONARYVAR
  2
AcDbDictionaryVar
  3
ObjectDBX Classes
 90
        0
280
     0
281
     0
  0
CLASS
  1
TABLESTYLE
  2
AcDbTableStyle
  3
ObjectDBX Classes
 90
     4095
280
     0
281
     0
  0
CLASS
  1
MATERIAL
  2
AcDbMaterial
  3
ObjectDBX Classes
 90
     1153
280
     0
281
     0
  0
CLASS
  1
VISUALSTYLE
  2
AcDbVisualStyle
  3
ObjectDBX Classes
 90
     4095
280
     0
281
     0
  0
CLASS
  1
SCALE
  2
AcDbScale
  3
ObjectDBX Classes
 90
     1153
280
     0
281
     0
  0
CLASS
  1
MLEADERSTYLE
  2
AcDbMLeaderStyle
  3
ACDB_MLEADERSTYLE_CLASS
 90
     4095
280
     0
281
     0
  0
CLASS
  1
CELLSTYLEMAP
  2
AcDbCellStyleMap
  3
ObjectDBX Classes
 90
     1152
280
     0
281
     0
  0
CLASS
  1
EXACXREFPANELOBJECT
  2
ExAcXREFPanelObject
  3
EXAC_ESW
 90
    33793
280
     0
281
     0
  0
CLASS
  1
NPOCOLLECTION
  2
AcDbImpNonPersistentObjectsCollection
  3
ObjectDBX Classes
 90
    33921
280
     0
281
     0
  0
CLASS
  1
LAYER_INDEX
  2
AcDbLayerIndex
  3
ObjectDBX Classes
 90
    32768
280
     0
281
     0
  0
CLASS
  1
SPATIAL_INDEX
  2
AcDbSpatialIndex
  3
ObjectDBX Classes
 90
    32768
280
     0
281
     0
  0
CLASS
  1
IDBUFFER
  2
AcDbIdBuffer
  3
ObjectDBX Classes
 90
    32768
280
     0
281
     0
  0
CLASS
  1
SORTENTSTABLE
  2
AcDbSortentsTable
  3
ObjectDBX Classes
 90
        0
280
     0
281
     0
  0
CLASS
  1
RASTERVARIABLES
  2
AcDbRasterVariables
  3
ISM
 90
        0
280
     0
281
     0
  0
CLASS
  1
IMAGEDEF
  2
AcDbRasterImageDef
  3
ISM
 90
        0
280
     0
281
     0
  0
CLASS
  1
IMAGEDEF_REACTOR
  2
AcDbRasterImageDefReactor
  3
ISM
 90
    32769
280
     0
281
     0
  0
CLASS
  1
IMAGE
  2
AcDbRasterImage
  3
ISM
 90
    34943
280
     0
281
     1
  0
CLASS
  1
ACDBSECTIONVIEWSTYLE
  2
AcDbSectionViewStyle
  3
ObjectDBX Classes
 90
     1025
280
     0
281
     0
  0
CLASS
  1
ACDBDETAILVIEWSTYLE
  2
AcDbDetailViewStyle
  3
ObjectDBX Classes
 90
     1025
280
     0
281
     0
  0
ENDSEC
  0
SECTION
  2
TABLES
  0
TABLE
  2
VPORT
  5
8
330
0
100
AcDbSymbolTable
 70
     1
  0
VPORT
  5
EA
330
8
100
AcDbSymbolTableRecord
100
AcDbViewportTableRecord
  2
*Active
 70
     0
 10
0.0
 20
0.0
 11
1.0
 21
1.0
 12
2859.620775170925
 22
1036.74972580286
 13
0.0
 23
0.0
 14
10.0
 24
10.0
 15
10.0
 25
10.0
 16
0.0
 26
0.0
 36
1.0
 17
0.0
 27
0.0
 37
0.0
 40
179.871386427053
 41
2.371249999999999
 42
50.0
 43
0.0
 44
0.0
 50
0.0
 51
0.0
 71
     0
 72
  1000
 73
     1
 74
     3
 75
     0
 76
     0
 77
     0
 78
     0
281
     0
 65
     1
110
0.0
120
0.0
130
0.0
111
1.0
121
0.0
131
0.0
112
0.0
122
1.0
132
0.0
 79
     0
146
0.0
1001
ACAD_NAV_VCDISPLAY
1070
     3
  0
ENDTAB
  0
TABLE
  2
LTYPE
  5
5
330
0
100
AcDbSymbolTable
 70
     2
  0
LTYPE
  5
14
330
5
100
AcDbSymbolTableRecord
100
AcDbLinetypeTableRecord
  2
ByBlock
 70
     0
  3

 72
    65
 73
     0
 40
0.0
  0
LTYPE
  5
15
330
5
100
AcDbSymbolTableRecord
100
AcDbLinetypeTableRecord
  2
ByLayer
 70
     0
  3

 72
    65
 73
     0
 40
0.0
  0
LTYPE
  5
16
330
5
100
AcDbSymbolTableRecord
100
AcDbLinetypeTableRecord
  2
Continuous
 70
     0
  3
Solid line
 72
    65
 73
     0
 40
0.0
  0
ENDTAB
  0
TABLE
  2
LAYER
  5
2
330
0
100
AcDbSymbolTable
 70
     1
  0
LAYER
  5
10
102
{ACAD_XDICTIONARY
360
13C
102
}
330
2
100
AcDbSymbolTableRecord
100
AcDbLayerTableRecord
  2
0
 70
     0
 62
     7
  6
Continuous
370
    -3
390
F
  0
ENDTAB
  0
TABLE
  2
STYLE
  5
3
330
0
100
AcDbSymbolTable
 70
     2
  0
STYLE
  5
11
330
3
100
AcDbSymbolTableRecord
100
AcDbTextStyleTableRecord
  2
Standard
 70
     0
 40
0.0
 41
1.0
 50
0.0
 71
     0
 42
2.5
  3

  4

1001
ACAD
1000
SimSun
1071
       34
  0
STYLE
  5
132
330
3
100
AcDbSymbolTableRecord
100
AcDbTextStyleTableRecord
  2
Annotative
 70
     0
 40
0.0
 41
1.0
 50
0.0
 71
     0
 42
2.5
  3

  4

1001
AcadAnnotative
1000
AnnotativeData
1002
{
1070
     1
1070
     1
1002
}
1001
ACAD
1000
SimSun
1071
       34
  0
ENDTAB
  0
TABLE
  2
VIEW
  5
6
330
0
100
AcDbSymbolTable
 70
     0
  0
ENDTAB
  0
TABLE
  2
UCS
  5
7
330
0
100
AcDbSymbolTable
 70
     0
  0
ENDTAB
  0
TABLE
  2
APPID
  5
9
330
0
100
AcDbSymbolTable
 70
     9
  0
APPID
  5
12
330
9
100
AcDbSymbolTableRecord
100
AcDbRegAppTableRecord
  2
ACAD
 70
     0
  0
APPID
  5
9E
330
9
100
AcDbSymbolTableRecord
100
AcDbRegAppTableRecord
  2
ACAD_PSEXT
 70
     0
  0
APPID
  5
133
330
9
100
AcDbSymbolTableRecord
100
AcDbRegAppTableRecord
  2
AcadAnnoPO
 70
     0
  0
APPID
  5
134
330
9
100
AcDbSymbolTableRecord
100
AcDbRegAppTableRecord
  2
AcadAnnotative
 70
     0
  0
APPID
  5
135
330
9
100
AcDbSymbolTableRecord
100
AcDbRegAppTableRecord
  2
ACAD_DSTYLE_DIMJAG
 70
     0
  0
APPID
  5
136
330
9
100
AcDbSymbolTableRecord
100
AcDbRegAppTableRecord
  2
ACAD_DSTYLE_DIMTALN
 70
     0
  0
APPID
  5
165
330
9
100
AcDbSymbolTableRecord
100
AcDbRegAppTableRecord
  2
ACAD_MLEADERVER
 70
     0
  0
APPID
  5
674
330
9
100
AcDbSymbolTableRecord
100
AcDbRegAppTableRecord
  2
ACAD_EXEMPT_FROM_CAD_STANDARDS
 70
     0
  0
APPID
  5
2A9A
330
9
100
AcDbSymbolTableRecord
100
AcDbRegAppTableRecord
  2
ACAD_NAV_VCDISPLAY
 70
     0
  0
ENDTAB
  0
TABLE
  2
DIMSTYLE
  5
A
330
0
100
AcDbSymbolTable
 70
     4
100
AcDbDimStyleTable
 71
     2
340
27
340
137
  0
DIMSTYLE
105
1B0
330
A
100
AcDbSymbolTableRecord
100
AcDbDimStyleTableRecord
  2
Standard
 70
     0
340
11
  0
DIMSTYLE
105
137
330
A
100
AcDbSymbolTableRecord
100
AcDbDimStyleTableRecord
  2
Annotative
 70
     0
 40
0.0
 41
2.5
 42
0.625
 43
3.75
 44
1.25
 73
     0
 74
     0
 77
     1
 78
     8
140
2.5
141
2.5
143
0.03937007874016
147
0.625
171
     3
172
     1
271
     2
272
     2
274
     3
278
    44
283
     0
284
     8
340
11
1001
AcadAnnotative
1000
AnnotativeData
1002
{
1070
     1
1070
     1
1002
}
1001
ACAD_DSTYLE_DIMJAG
1070
   388
1040
1.5
1001
ACAD_DSTYLE_DIMTALN
1070
   392
1070
     0
  0
DIMSTYLE
105
27
330
A
100
AcDbSymbolTableRecord
100
AcDbDimStyleTableRecord
  2
ISO-25
 70
     0
 41
2.5
 42
0.625
 43
3.75
 44
1.25
 73
     0
 74
     0
 77
     1
 78
     8
140
2.5
141
2.5
143
0.03937007874016
147
0.625
171
     3
172
     1
271
     2
272
     2
274
     3
278
    44
283
     0
284
     8
340
11
  0
ENDTAB
  0
TABLE
  2
BLOCK_RECORD
  5
1
330
0
100
AcDbSymbolTable
 70
     2
  0
BLOCK_RECORD
  5
1F
102
{ACAD_XDICTIONARY
360
1CE
102
}
330
1
100
AcDbSymbolTableRecord
100
AcDbBlockTableRecord
  2
*Model_Space
340
22
  0
BLOCK_RECORD
  5
D2
330
1
100
AcDbSymbolTableRecord
100
AcDbBlockTableRecord
  2
*Paper_Space
340
D3
  0
BLOCK_RECORD
  5
D6
330
1
100
AcDbSymbolTableRecord
100
AcDbBlockTableRecord
  2
*Paper_Space0
340
D7
  0
ENDTAB
  0
ENDSEC
  0
SECTION
  2
BLOCKS
  0
BLOCK
  5
20
330
1F
100
AcDbEntity
  8
0
100
AcDbBlockBegin
  2
*Model_Space
 70
     0
 10
0.0
 20
0.0
 30
0.0
  3
*Model_Space
  1

  0
ENDBLK
  5
21
330
1F
100
AcDbEntity
  8
0
100
AcDbBlockEnd
  0
BLOCK
  5
D4
330
D2
100
AcDbEntity
 67
     1
  8
0
100
AcDbBlockBegin
  2
*Paper_Space
 70
     0
 10
0.0
 20
0.0
 30
0.0
  3
*Paper_Space
  1

  0
ENDBLK
  5
D5
330
D2
100
AcDbEntity
 67
     1
  8
0
100
AcDbBlockEnd
  0
BLOCK
  5
D8
330
D6
100
AcDbEntity
 67
     1
  8
0
100
AcDbBlockBegin
  2
*Paper_Space0
 70
     0
 10
0.0
 20
0.0
 30
0.0
  3
*Paper_Space0
  1

  0
ENDBLK
  5
D9
330
D6
100
AcDbEntity
 67
     1
  8
0
100
AcDbBlockEnd
  0
ENDSEC
  0
SECTION
  2
ENTITIES
  0
LWPOLYLINE
  5
2B3
330
1F
100
AcDbEntity
  8
0
100
AcDbPolyline
 90
        4
 70
     1
 43
0.0
 10
2654.701431861128
 20
1430.432347517771
 10
2654.701431861128
 20
1427.432347517771
 10
2664.701431861128
 20
1427.432347517771
 10
2664.701431861128
 20
1430.432347517772
  0
LWPOLYLINE
  5
2B5
330
1F
100
AcDbEntity
  8
0
100
AcDbPolyline
 90
        4
 70
     1
 43
0.0
 10
2620.701431861128
 20
1430.432347517771
 10
2620.701431861129
 20
1427.432347517771
 10
2610.701431861128
 20
1427.432347517771
 10
2610.701431861128
 20
1430.432347517771
  0
LWPOLYLINE
  5
2BB
330
1F
100
AcDbEntity
  8
0
100
AcDbPolyline
 90
        4
 70
     1
 43
0.0
 10
2620.701431861128
 20
1376.432347517771
 10
2620.701431861129
 20
1379.432347517771
 10
2610.701431861128
 20
1379.432347517771
 10
2610.701431861128
 20
1376.432347517771
  0
LWPOLYLINE
  5
2BC
330
1F
100
AcDbEntity
  8
0
100
AcDbPolyline
 90
        4
 70
     1
 43
0.0
 10
2654.701431861128
 20
1376.432347517771
 10
2654.701431861128
 20
1379.432347517771
 10
2664.701431861128
 20
1379.432347517771
 10
2664.701431861128
 20
1376.432347517771
  0
LWPOLYLINE
  5
401
330
1F
100
AcDbEntity
  8
0
100
AcDbPolyline
 90
       14
 70
     1
 43
0.0
 10
2907.99364505154
 20
1400.469958557249
 10
2873.993645051539
 20
1400.469958557249
 10
2873.993645051539
 20
1403.469958557249
 10
2863.99364505154
 20
1403.469958557249
 10
2863.99364505154
 20
1400.469958557249
 10
2860.993645051541
 20
1400.469958557249
 10
2860.993645051541
 20
1380.469958557249
 10
2870.993645051539
 20
1380.469958557249
 42
-0.5000000000000137
 10
2910.99364505154
 20
1380.469958557249
 10
2920.99364505154
 20
1380.469958557249
 10
2920.99364505154
 20
1400.469958557249
 10
2917.993645051539
 20
1400.469958557249
 10
2917.993645051539
 20
1403.469958557249
 10
2907.99364505154
 20
1403.469958557249
  0
LWPOLYLINE
  5
44E
330
1F
100
AcDbEntity
  8
0
100
AcDbPolyline
 90
       14
 70
     1
 43
0.0
 10
2907.99364505154
 20
1427.332759364304
 10
2873.993645051539
 20
1427.332759364304
 10
2873.993645051539
 20
1430.332759364304
 10
2863.99364505154
 20
1430.332759364304
 10
2863.99364505154
 20
1427.332759364304
 10
2860.993645051541
 20
1427.332759364304
 10
2860.993645051541
 20
1407.332759364304
 10
2870.993645051539
 20
1407.332759364304
 42
-0.5000000000000137
 10
2910.99364505154
 20
1407.332759364304
 10
2920.99364505154
 20
1407.332759364304
 10
2920.99364505154
 20
1427.332759364304
 10
2917.993645051539
 20
1427.332759364304
 10
2917.993645051539
 20
1430.332759364304
 10
2907.99364505154
 20
1430.332759364304
  0
LWPOLYLINE
  5
598
330
1F
100
AcDbEntity
  8
0
100
AcDbPolyline
 90
       20
 70
     1
 43
0.0
 10
2642.701431861127
 20
1433.432347517771
 10
2667.701431861127
 20
1433.432347517771
 10
2667.701431861127
 20
1408.432347517772
 10
2664.701431861127
 20
1408.432347517772
 10
2664.701431861127
 20
1398.432347517772
 10
2667.701431861127
 20
1398.432347517772
 10
2667.701431861127
 20
1373.432347517772
 10
2642.701431861127
 20
1373.432347517772
 10
2642.701431861127
 20
1376.432347517771
 10
2632.701431861127
 20
1376.432347517771
 10
2632.701431861127
 20
1373.432347517772
 10
2607.701431861127
 20
1373.432347517772
 10
2607.701431861127
 20
1398.432347517772
 10
2610.701431861127
 20
1398.432347517772
 10
2610.701431861127
 20
1408.432347517772
 10
2607.701431861127
 20
1408.432347517772
 10
2607.701431861127
 20
1433.432347517771
 10
2632.701431861127
 20
1433.432347517771
 10
2632.701431861127
 20
1430.432347517771
 10
2642.701431861127
 20
1430.432347517771
  0
LWPOLYLINE
  5
858
330
1F
100
AcDbEntity
  8
0
100
AcDbPolyline
 90
        4
 70
     1
 43
0.0
 10
2625.251431861128
 20
1415.882347517771
 10
2625.251431861128
 20
1390.957347517771
 10
2650.151431861127
 20
1390.957347517772
 10
2650.151431861127
 20
1415.882347517771
  0
LWPOLYLINE
  5
8C6
330
1F
100
AcDbEntity
  8
0
100
AcDbPolyline
 90
       20
 70
     1
 43
0.0
 10
2578.792154773153
 20
1433.432347517771
 10
2603.792154773153
 20
1433.432347517771
 10
2603.792154773153
 20
1408.432347517772
 10
2600.792154773153
 20
1408.432347517772
 10
2600.792154773153
 20
1398.432347517772
 10
2603.792154773153
 20
1398.432347517772
 10
2603.792154773153
 20
1373.432347517772
 10
2578.792154773153
 20
1373.432347517772
 10
2578.792154773153
 20
1376.432347517771
 10
2568.792154773153
 20
1376.432347517771
 10
2568.792154773153
 20
1373.432347517772
 10
2543.792154773153
 20
1373.432347517772
 10
2543.792154773153
 20
1398.432347517772
 10
2546.792154773153
 20
1398.432347517772
 10
2546.792154773153
 20
1408.432347517772
 10
2543.792154773153
 20
1408.432347517772
 10
2543.792154773153
 20
1433.432347517771
 10
2568.792154773153
 20
1433.432347517771
 10
2568.792154773153
 20
1430.432347517771
 10
2578.792154773153
 20
1430.432347517771
  0
LWPOLYLINE
  5
A0F
330
1F
100
AcDbEntity
  8
0
100
AcDbPolyline
 90
        4
 70
     1
 43
0.0
 10
2500.153834857857
 20
1416.357347517772
 10
2500.153834857857
 20
1391.432347517772
 10
2525.053834857855
 20
1391.432347517772
 10
2525.053834857856
 20
1416.357347517771
  0
LWPOLYLINE
  5
A90
330
1F
100
AcDbEntity
  8
0
100
AcDbPolyline
 90
       20
 70
     1
 43
0.0
 10
2485.603834857857
 20
1408.432347517772
 10
2482.603834857858
 20
1408.432347517772
 10
2482.603834857858
 20
1398.432347517772
 10
2485.603834857857
 20
1398.432347517771
 10
2485.603834857857
 20
1376.432347517771
 10
2507.603834857857
 20
1376.432347517771
 10
2507.603834857857
 20
1373.432347517771
 10
2517.603834857857
 20
1373.432347517771
 10
2517.603834857857
 20
1376.432347517771
 10
2539.603834857857
 20
1376.432347517771
 10
2539.603834857855
 20
1398.432347517772
 10
2542.603834857855
 20
1398.432347517772
 10
2542.603834857855
 20
1408.432347517772
 10
2539.603834857855
 20
1408.432347517772
 10
2539.603834857855
 20
1430.432347517771
 10
2517.603834857857
 20
1430.432347517772
 10
2517.603834857857
 20
1433.432347517772
 10
2507.603834857857
 20
1433.432347517772
 10
2507.603834857857
 20
1430.432347517772
 10
2485.603834857857
 20
1430.432347517771
  0
LWPOLYLINE
  5
B12
330
1F
100
AcDbEntity
  8
0
100
AcDbPolyline
 90
        4
 70
     1
 43
0.0
 10
2707.143514313491
 20
1374.432347517771
 10
2697.14351431349
 20
1374.432347517771
 10
2697.14351431349
 20
1377.432347517771
 10
2707.143514313491
 20
1377.432347517771
  0
LWPOLYLINE
  5
B16
330
1F
100
AcDbEntity
  8
0
100
AcDbPolyline
 90
        4
 70
     1
 43
0.0
 10
2770.79529004675
 20
1374.432347517771
 10
2760.79529004675
 20
1374.432347517771
 10
2760.79529004675
 20
1377.432347517771
 10
2770.79529004675
 20
1377.432347517771
  0
LWPOLYLINE
  5
B17
330
1F
100
AcDbEntity
  8
0
100
AcDbPolyline
 90
        4
 70
     1
 43
0.0
 10
2832.373515966258
 20
1374.432347517771
 10
2822.373515966259
 20
1374.432347517771
 10
2822.373515966259
 20
1377.432347517771
 10
2832.373515966258
 20
1377.432347517771
  0
LWPOLYLINE
  5
B18
330
1F
100
AcDbEntity
  8
0
100
AcDbPolyline
 90
        4
 70
     1
 43
0.0
 10
2713.324229591038
 20
1302.955080276855
 10
2703.324229591037
 20
1302.955080276855
 10
2703.324229591037
 20
1305.955080276855
 10
2713.324229591038
 20
1305.955080276855
  0
LWPOLYLINE
  5
1000
330
1F
100
AcDbEntity
  8
0
100
AcDbPolyline
 90
        5
 70
     1
 43
0.0
 10
2698.54878968028
 20
1419.629614327132
 10
2697.563255008311
 20
1415.309442184433
 10
2701.474456854522
 20
1413.139506225105
 10
2703.05837565153
 20
1417.543818089559
 10
2701.431809456251
 20
1422.136945092336
  0
LWPOLYLINE
  5
1005
330
1F
100
AcDbEntity
  8
0
100
AcDbPolyline
 90
        4
 70
     1
 43
0.0
 10
2698.675420519825
 20
1423.080279199358
 10
2698.831334546623
 20
1421.639859283007
 10
2701.127104014381
 20
1423.898422078949
 10
2700.004994492314
 20
1426.364919937297
  0
LWPOLYLINE
  5
1009
330
1F
100
AcDbEntity
  8
0
100
AcDbPolyline
 90
        4
 70
     1
 43
0.0
 10
2696.056591766196
 20
1421.200546176057
 10
2696.320140838408
 20
1415.619584347961
 10
2697.999866418351
 20
1421.417719568942
 10
2697.60930841715
 20
1425.526438989666
  0
LWPOLYLINE
  5
100D
330
1F
100
AcDbEntity
  8
0
100
AcDbPolyline
 90
        3
 70
     1
 43
0.0
 10
2691.979861254619
 20
1418.079879848213
 10
2694.45983953093
 20
1414.924519693396
 10
2693.419614917858
 20
1421.542321600965
  0
LWPOLYLINE
  5
1010
330
1F
100
AcDbEntity
  8
0
100
AcDbPolyline
 90
        3
 70
     1
 43
0.0
 10
2695.301766646326
 20
1422.000460184204
 10
2696.508795276346
 20
1426.56269551515
 10
2694.262744818896
 20
1426.50327090242
  0
LWPOLYLINE
  5
1013
330
1F
100
AcDbEntity
  8
0
100
AcDbPolyline
 90
        6
 70
     0
 43
0.0
 10
2677.146959488912
 20
1425.994117312337
 10
2677.368835304204
 20
1424.113974774648
 10
2681.247231064806
 20
1419.218668608758
 10
2684.355359711239
 20
1413.533783321113
 10
2680.872337718995
 20
1426.463137647269
 10
2677.143539034906
 20
1426.023101728978
  0
LWPOLYLINE
  5
1018
330
1F
100
AcDbEntity
  8
0
100
AcDbPolyline
 90
        3
 70
     1
 43
0.0
 10
2690.449695480134
 20
1421.780124974322
 10
2692.960461986422
 20
1426.818613910224
 10
2687.491923476836
 20
1426.425797798845
  0
LWPOLYLINE
  5
101B
330
1F
100
AcDbEntity
  8
0
100
AcDbPolyline
 90
        3
 70
     1
 43
0.0
 10
2687.912731522577
 20
1417.255566571324
 10
2690.133625555029
 20
1421.037562319863
 10
2685.978403353989
 20
1425.847573645189
  0
LWPOLYLINE
  5
101E
330
1F
100
AcDbEntity
  8
0
100
AcDbPolyline
 90
        5
 70
     1
 43
0.0
 10
2689.758105734008
 20
1409.164839210713
 10
2695.02787093489
 20
1401.733024495351
 10
2693.953258862387
 20
1413.386837661435
 10
2691.397467445016
 20
1417.267909389439
 10
2689.11347717126
 20
1414.083581877987
  0
LWPOLYLINE
  5
1023
330
1F
100
AcDbEntity
  8
0
100
AcDbPolyline
 90
        3
 70
     1
 43
0.0
 10
2691.793153201193
 20
1396.603385318307
 10
2690.460003416067
 20
1405.963158613657
 10
2694.381122625371
 20
1400.771639929731
  0
LWPOLYLINE
  5
1026
330
1F
100
AcDbEntity
  8
0
100
AcDbPolyline
 90
       10
 70
     1
 43
0.0
 10
2681.367915385559
 20
1412.526275719263
 10
2682.703289128036
 20
1410.624052475881
 10
2683.621869780027
 20
1408.204383938977
 10
2684.035868514684
 20
1405.352225049141
 10
2685.259714980527
 20
1401.811012701037
 10
2687.125595915536
 20
1398.890348029925
 10
2685.713189779832
 20
1409.539921858202
 10
2684.959424720444
 20
1411.538721343959
 10
2682.762274398591
 20
1413.34292729347
 10
2679.019278720592
 20
1415.053558150229
  0
LWPOLYLINE
  5
1030
330
1F
100
AcDbEntity
  8
0
100
AcDbPolyline
 90
        3
 70
     1
 43
0.0
 10
2677.251567637692
 20
1421.011355688815
 10
2678.84539431257
 20
1421.024508978278
 10
2677.181203409511
 20
1422.889568344177
  0
LWPOLYLINE
  5
1033
330
1F
100
AcDbEntity
  8
0
100
AcDbPolyline
 90
        5
 70
     1
 43
0.0
 10
2678.116757649456
 20
1417.439591507347
 10
2682.242027776535
 20
1414.698802675254
 10
2680.959230545106
 20
1417.216047212598
 10
2679.239613505079
 20
1420.084424115092
 10
2677.765817833784
 20
1420.190507143561
  0
LWPOLYLINE
  5
1038
330
1F
100
AcDbEntity
  8
0
100
AcDbPolyline
 90
        5
 70
     1
 43
0.0
 10
2678.60285535175
 20
1411.252115813451
 10
2680.892918944698
 20
1410.306371733742
 10
2681.90848807619
 20
1409.474848098836
 10
2681.680982411985
 20
1410.643847708771
 10
2678.67518317888
 20
1413.226904577458
  0
LWPOLYLINE
  5
103D
330
1F
100
AcDbEntity
  8
0
100
AcDbPolyline
 90
        5
 70
     1
 43
0.0
 10
2679.049530444341
 20
1407.807798168565
 10
2683.164414575594
 20
1404.171681883067
 10
2682.533975143631
 20
1407.556612575018
 10
2681.675309027129
 20
1408.614725746844
 10
2678.882106311325
 20
1410.019848610136
  0
LWPOLYLINE
  5
1042
330
1F
100
AcDbEntity
  8
0
100
AcDbPolyline
 90
        4
 70
     0
 43
0.0
 10
2688.627963543023
 20
1378.432330582942
 10
2687.200854306678
 20
1396.622830627132
 10
2679.094452826507
 20
1405.226700698388
 10
2677.14351431349
 20
1378.432330582942
  0
LWPOLYLINE
  5
1045
330
1F
100
AcDbEntity
  8
0
100
AcDbPolyline
 90
        5
 70
     0
 43
0.0
 10
2696.605617529631
 20
1378.432330582942
 10
2696.067928395457
 20
1393.179718752167
 10
2695.003077998798
 20
1397.416302930345
 10
2692.543109084698
 20
1393.890727154359
 10
2693.796982187738
 20
1378.432330582942
  0
LWPOLYLINE
  5
1049
330
1F
100
AcDbEntity
  8
0
100
AcDbPolyline
 90
        3
 70
     1
 43
0.0
 10
2698.638705961819
 20
1398.276767631095
 10
2699.237144316492
 20
1401.158702232633
 10
2697.851498937539
 20
1400.831258302832
  0
LWPOLYLINE
  5
104C
330
1F
100
AcDbEntity
  8
0
100
AcDbPolyline
 90
        4
 70
     1
 43
0.0
 10
2697.544793122805
 20
1402.302541001387
 10
2699.753378210731
 20
1404.437211557488
 10
2701.259398174984
 20
1412.227794712544
 10
2697.064137568789
 20
1414.256035807591
  0
LWPOLYLINE
  5
1050
330
1F
100
AcDbEntity
  8
0
100
AcDbPolyline
 90
        3
 70
     1
 43
0.0
 10
2703.736483278234
 20
1420.537409470854
 10
2705.769918788009
 20
1427.291386497118
 10
2700.914371318564
 20
1426.675999338819
  0
LWPOLYLINE
  5
1053
330
1F
100
AcDbEntity
  8
0
100
AcDbPolyline
 90
        5
 70
     1
 43
0.0
 10
2704.561989626319
 20
1418.320793370263
 10
2706.394638878465
 20
1414.427332349895
 10
2708.118536144882
 20
1423.649664559917
 10
2706.580900703777
 20
1426.427225437077
 10
2705.612842665664
 20
1420.851240922873
  0
LWPOLYLINE
  5
1058
330
1F
100
AcDbEntity
  8
0
100
AcDbPolyline
 90
        3
 70
     1
 43
0.0
 10
2702.51981473714
 20
1412.097380032353
 10
2704.314807027151
 20
1409.707006538754
 10
2703.703198176953
 20
1414.182479788019
  0
LWPOLYLINE
  5
105B
330
1F
100
AcDbEntity
  8
0
100
AcDbPolyline
 90
        4
 70
     1
 43
0.0
 10
2701.305544624806
 20
1405.040338787743
 10
2704.967485856354
 20
1405.879142287383
 10
2704.46554470645
 20
1408.362946725226
 10
2702.636073188357
 20
1410.190772405121
  0
LWPOLYLINE
  5
105F
330
1F
100
AcDbEntity
  8
0
100
AcDbPolyline
 90
        6
 70
     0
 43
0.0
 10
2705.051684189929
 20
1378.432330582942
 10
2705.002334314453
 20
1395.263464692539
 10
2704.524462681802
 20
1404.497900888377
 10
2701.434427063145
 20
1403.689645229469
 10
2699.159235828511
 20
1394.915265881218
 10
2701.063652855704
 20
1378.432330582942
  0
LWPOLYLINE
  5
1064
330
1F
100
AcDbEntity
  8
0
100
AcDbPolyline
 90
        5
 70
     1
 43
0.0
 10
2708.605803817925
 20
1425.350365058737
 10
2708.061659090421
 20
1425.410813435422
 10
2707.465620041367
 20
1426.778469787252
 10
2707.677040222789
 20
1427.308582353215
 10
2708.677161953759
 20
1427.312408213158
  0
LWPOLYLINE
  5
1069
330
1F
100
AcDbEntity
  8
0
100
AcDbPolyline
 90
        8
 70
     1
 43
0.0
 10
2715.146060446764
 20
1422.111622899876
 10
2714.762610191092
 20
1420.267053334153
 10
2715.113519879344
 20
1418.307796021428
 10
2715.769981979866
 20
1418.656247411073
 10
2715.815181832953
 20
1420.547422524792
 10
2716.281794939745
 20
1422.676992912287
 10
2715.722644625522
 20
1426.911229413126
 10
2714.496742404409
 20
1427.1433895072
  0
LWPOLYLINE
  5
1071
330
1F
100
AcDbEntity
  8
0
100
AcDbPolyline
 90
        5
 70
     1
 43
0.0
 10
2716.965355951033
 20
1422.260565887317
 10
2717.959041536496
 20
1423.434438099182
 10
2717.987023868501
 20
1425.641181822055
 10
2718.362926283628
 20
1425.948448614228
 10
2717.330674406849
 20
1427.596133073161
  0
LWPOLYLINE
  5
1076
330
1F
100
AcDbEntity
  8
0
100
AcDbPolyline
 90
        8
 70
     1
 43
0.0
 10
2718.859215057201
 20
1425.267045826276
 10
2718.632276917124
 20
1424.447973112463
 10
2718.638700967816
 20
1423.805494949083
 10
2718.408383583062
 20
1423.250892612451
 10
2718.489685408411
 20
1422.149903247517
 10
2719.517223113234
 20
1422.803409649964
 10
2720.160938666691
 20
1425.370113342126
 10
2719.27194434858
 20
1427.052072363768
  0
LWPOLYLINE
  5
107E
330
1F
100
AcDbEntity
  8
0
100
AcDbPolyline
 90
        8
 70
     1
 43
0.0
 10
2720.993488100234
 20
1425.276284189874
 10
2721.273206385907
 20
1422.938185531192
 10
2721.915862480078
 20
1419.707987959202
 10
2722.653756670692
 20
1421.011963633291
 10
2722.13420456145
 20
1424.335319117778
 10
2723.052119282639
 20
1426.190999805298
 10
2723.002282806284
 20
1427.143600275318
 10
2721.781168036932
 20
1427.59686557104
  0
LWPOLYLINE
  5
1086
330
1F
100
AcDbEntity
  8
0
100
AcDbPolyline
 90
        4
 70
     1
 43
0.0
 10
2712.968843429245
 20
1422.592665951157
 10
2714.159568088965
 20
1421.720721283139
 10
2714.291836945083
 20
1422.943589208985
 10
2713.610592582948
 20
1424.871511962953
  0
LWPOLYLINE
  5
108A
330
1F
100
AcDbEntity
  8
0
100
AcDbPolyline
 90
        4
 70
     1
 43
0.0
 10
2711.269887881484
 20
1414.574768242406
 10
2714.429088389147
 20
1410.854283585565
 10
2713.852217100935
 20
1417.444433219167
 10
2712.582826379841
 20
1419.842650609343
  0
LWPOLYLINE
  5
108E
330
1F
100
AcDbEntity
  8
0
100
AcDbPolyline
 90
        3
 70
     1
 43
0.0
 10
2708.923534543169
 20
1407.224267986768
 10
2712.2153171514
 20
1407.825959787872
 10
2709.858836479478
 20
1411.44247950981
  0
LWPOLYLINE
  5
1091
330
1F
100
AcDbEntity
  8
0
100
AcDbPolyline
 90
        5
 70
     0
 43
0.0
 10
2715.946130475569
 20
1378.432330582942
 10
2715.095428314875
 20
1388.826345500438
 10
2713.973266544901
 20
1394.322839128427
 10
2709.174999424627
 20
1402.124230347947
 10
2710.735474819307
 20
1378.432330582942
  0
LWPOLYLINE
  5
1095
330
1F
100
AcDbEntity
  8
0
100
AcDbPolyline
 90
        4
 70
     1
 43
0.0
 10
2714.541370518361
 20
1406.135656525413
 10
2715.855730289182
 20
1395.82095985909
 10
2708.67796190845
 20
1405.238030749982
 10
2709.013286922761
 20
1405.496169806683
  0
LWPOLYLINE
  5
1099
330
1F
100
AcDbEntity
  8
0
100
AcDbPolyline
 90
        7
 70
     1
 43
0.0
 10
2724.144010485045
 20
1425.928775461919
 10
2724.219486609435
 20
1424.544913509777
 10
2723.920218151232
 20
1424.048509572215
 10
2724.058746132259
 20
1421.910495166138
 10
2725.448385721632
 20
1424.176800751765
 10
2725.49101773277
 20
1426.185940812203
 10
2724.852220617157
 20
1427.453146554497
  0
LWPOLYLINE
  5
10A0
330
1F
100
AcDbEntity
  8
0
100
AcDbPolyline
 90
        8
 70
     1
 43
0.0
 10
2718.24352289335
 20
1419.340474120537
 10
2717.195951603665
 20
1415.309510625712
 10
2716.901165793578
 20
1412.753878727269
 10
2716.908476794004
 20
1409.630059623861
 10
2718.851850150528
 20
1412.51435980982
 10
2719.728299836291
 20
1415.253129704206
 10
2720.712445676515
 20
1416.44125148306
 10
2720.244247882123
 20
1422.695811585825
  0
LWPOLYLINE
  5
10A8
330
1F
100
AcDbEntity
  8
0
100
AcDbPolyline
 90
       14
 70
     1
 43
0.0
 10
2721.519593592218
 20
1401.210854431967
 10
2722.756383222926
 20
1403.948410399833
 10
2723.336126262588
 20
1406.015286381904
 10
2723.525078229414
 20
1410.548042271665
 10
2723.929051656123
 20
1412.130372944098
 10
2726.619473741047
 20
1417.123598987731
 10
2725.99778068819
 20
1421.63409966213
 10
2723.916831788404
 20
1418.253286727623
 10
2722.63701676945
 20
1416.852738826989
 10
2721.305344584431
 20
1412.186939949653
 10
2718.087134969196
 20
1407.725980167951
 10
2718.294305025312
 20
1403.510032559219
 10
2717.566033437697
 20
1401.097404951891
 10
2718.501356253712
 20
1393.685735716515
  0
LWPOLYLINE
  5
10B6
330
1F
100
AcDbEntity
  8
0
100
AcDbPolyline
 90
        4
 70
     1
 43
0.0
 10
2724.616528684322
 20
1410.90909254172
 10
2724.357030608231
 20
1407.672312675405
 10
2726.718126594888
 20
1412.151982480438
 10
2726.489969479282
 20
1415.011046587509
  0
LWPOLYLINE
  5
10BA
330
1F
100
AcDbEntity
  8
0
100
AcDbPolyline
 90
        4
 70
     1
 43
0.0
 10
2724.347711452519
 20
1405.350561080442
 10
2723.965132179619
 20
1403.795756356415
 10
2726.881307695757
 20
1406.542011014377
 10
2726.555066572772
 20
1407.859580018199
  0
LWPOLYLINE
  5
10BE
330
1F
100
AcDbEntity
  8
0
100
AcDbPolyline
 90
        9
 70
     0
 43
0.0
 10
2720.683069203897
 20
1378.432347517772
 10
2727.143514313491
 20
1378.432347517772
 10
2727.143514313491
 20
1394.499276379573
 10
2726.488709038728
 20
1395.927526769722
 10
2726.096212364302
 20
1404.075797874424
 10
2722.036173055505
 20
1398.624077233135
 10
2719.125905945693
 20
1390.07521377753
 10
2720.127021315821
 20
1380.384299829963
 10
2720.683074028081
 20
1378.432330582942
  0
LWPOLYLINE
  5
10FD
330
1F
100
AcDbEntity
  8
0
100
AcDbPolyline
 90
        2
 70
     0
 43
0.0
 10
2688.627962214426
 20
1378.432347517771
 10
2677.143515546541
 20
1378.432347517771
  0
LWPOLYLINE
  5
10FE
330
1F
100
AcDbEntity
  8
0
100
AcDbPolyline
 90
        2
 70
     0
 43
0.0
 10
2715.946129089532
 20
1378.432347517772
 10
2710.735473703889
 20
1378.432347517772
  0
LWPOLYLINE
  5
10FF
330
1F
100
AcDbEntity
  8
0
100
AcDbPolyline
 90
        2
 70
     0
 43
0.0
 10
2705.051684140275
 20
1378.432347517772
 10
2701.063650899076
 20
1378.432347517772
  0
LWPOLYLINE
  5
1100
330
1F
100
AcDbEntity
  8
0
100
AcDbPolyline
 90
        2
 70
     0
 43
0.0
 10
2696.605616912188
 20
1378.432347517771
 10
2693.796980814106
 20
1378.432347517771
  0
LWPOLYLINE
  5
1137
330
1F
100
AcDbEntity
  8
0
100
AcDbPolyline
 90
        2
 70
     0
 43
0.0
 10
2779.597904822791
 20
1378.432347517772
 10
2774.387249437148
 20
1378.432347517772
  0
LWPOLYLINE
  5
1138
330
1F
100
AcDbEntity
  8
0
100
AcDbPolyline
 90
        2
 70
     0
 43
0.0
 10
2768.703459873535
 20
1378.432347517772
 10
2764.715426632335
 20
1378.432347517772
  0
LWPOLYLINE
  5
1139
330
1F
100
AcDbEntity
  8
0
100
AcDbPolyline
 90
        2
 70
     0
 43
0.0
 10
2760.257392645447
 20
1378.432347517771
 10
2757.448756547366
 20
1378.432347517771
  0
LWPOLYLINE
  5
113A
330
1F
100
AcDbEntity
  8
0
100
AcDbPolyline
 90
        2
 70
     0
 43
0.0
 10
2752.279737947685
 20
1378.432347517771
 10
2740.795291279801
 20
1378.432347517771
  0
LWPOLYLINE
  5
113B
330
1F
100
AcDbEntity
  8
0
100
AcDbPolyline
 90
        9
 70
     0
 43
0.0
 10
2784.334844937156
 20
1378.432347517772
 10
2790.79529004675
 20
1378.432347517772
 10
2790.79529004675
 20
1394.499276379573
 10
2790.140484771988
 20
1395.927526769722
 10
2789.747988097562
 20
1404.075797874424
 10
2785.687948788766
 20
1398.624077233135
 10
2782.777681678954
 20
1390.07521377753
 10
2783.778797049081
 20
1380.384299829963
 10
2784.33484976134
 20
1378.432330582942
  0
LWPOLYLINE
  5
113C
330
1F
100
AcDbEntity
  8
0
100
AcDbPolyline
 90
        4
 70
     1
 43
0.0
 10
2787.999487185779
 20
1405.350561080442
 10
2787.616907912879
 20
1403.795756356415
 10
2790.533083429017
 20
1406.542011014377
 10
2790.206842306032
 20
1407.859580018199
  0
LWPOLYLINE
  5
113D
330
1F
100
AcDbEntity
  8
0
100
AcDbPolyline
 90
        4
 70
     1
 43
0.0
 10
2788.268304417581
 20
1410.90909254172
 10
2788.00880634149
 20
1407.672312675405
 10
2790.369902328148
 20
1412.151982480438
 10
2790.14174521254
 20
1415.011046587509
  0
LWPOLYLINE
  5
113E
330
1F
100
AcDbEntity
  8
0
100
AcDbPolyline
 90
       14
 70
     1
 43
0.0
 10
2785.171369325477
 20
1401.210854431967
 10
2786.408158956187
 20
1403.948410399833
 10
2786.987901995847
 20
1406.015286381904
 10
2787.176853962673
 20
1410.548042271665
 10
2787.580827389382
 20
1412.130372944098
 10
2790.271249474308
 20
1417.123598987731
 10
2789.64955642145
 20
1421.63409966213
 10
2787.568607521663
 20
1418.253286727623
 10
2786.28879250271
 20
1416.852738826989
 10
2784.95712031769
 20
1412.186939949653
 10
2781.738910702456
 20
1407.725980167951
 10
2781.946080758572
 20
1403.510032559219
 10
2781.217809170957
 20
1401.097404951891
 10
2782.153131986971
 20
1393.685735716515
  0
LWPOLYLINE
  5
113F
330
1F
100
AcDbEntity
  8
0
100
AcDbPolyline
 90
        8
 70
     1
 43
0.0
 10
2781.895298626609
 20
1419.340474120537
 10
2780.847727336924
 20
1415.309510625712
 10
2780.552941526837
 20
1412.753878727269
 10
2780.560252527263
 20
1409.630059623861
 10
2782.503625883789
 20
1412.51435980982
 10
2783.380075569551
 20
1415.253129704206
 10
2784.364221409775
 20
1416.44125148306
 10
2783.896023615382
 20
1422.695811585825
  0
LWPOLYLINE
  5
1140
330
1F
100
AcDbEntity
  8
0
100
AcDbPolyline
 90
        7
 70
     1
 43
0.0
 10
2787.795786218304
 20
1425.928775461919
 10
2787.871262342694
 20
1424.544913509777
 10
2787.571993884491
 20
1424.048509572215
 10
2787.710521865519
 20
1421.910495166138
 10
2789.100161454892
 20
1424.176800751765
 10
2789.142793466029
 20
1426.185940812203
 10
2788.503996350417
 20
1427.453146554497
  0
LWPOLYLINE
  5
1141
330
1F
100
AcDbEntity
  8
0
100
AcDbPolyline
 90
        4
 70
     1
 43
0.0
 10
2778.193146251621
 20
1406.135656525413
 10
2779.507506022442
 20
1395.82095985909
 10
2772.329737641709
 20
1405.238030749982
 10
2772.66506265602
 20
1405.496169806683
  0
LWPOLYLINE
  5
1142
330
1F
100
AcDbEntity
  8
0
100
AcDbPolyline
 90
        5
 70
     0
 43
0.0
 10
2779.597906208829
 20
1378.432330582942
 10
2778.747204048134
 20
1388.826345500438
 10
2777.62504227816
 20
1394.322839128427
 10
2772.826775157887
 20
1402.124230347947
 10
2774.387250552567
 20
1378.432330582942
  0
LWPOLYLINE
  5
1143
330
1F
100
AcDbEntity
  8
0
100
AcDbPolyline
 90
        3
 70
     1
 43
0.0
 10
2772.575310276428
 20
1407.224267986768
 10
2775.86709288466
 20
1407.825959787872
 10
2773.510612212738
 20
1411.44247950981
  0
LWPOLYLINE
  5
1144
330
1F
100
AcDbEntity
  8
0
100
AcDbPolyline
 90
        4
 70
     1
 43
0.0
 10
2774.921663614743
 20
1414.574768242406
 10
2778.080864122407
 20
1410.854283585565
 10
2777.503992834195
 20
1417.444433219167
 10
2776.234602113101
 20
1419.842650609343
  0
LWPOLYLINE
  5
1145
330
1F
100
AcDbEntity
  8
0
100
AcDbPolyline
 90
        4
 70
     1
 43
0.0
 10
2776.620619162504
 20
1422.592665951157
 10
2777.811343822225
 20
1421.720721283139
 10
2777.943612678343
 20
1422.943589208985
 10
2777.262368316208
 20
1424.871511962953
  0
LWPOLYLINE
  5
1146
330
1F
100
AcDbEntity
  8
0
100
AcDbPolyline
 90
        8
 70
     1
 43
0.0
 10
2784.645263833493
 20
1425.276284189874
 10
2784.924982119167
 20
1422.938185531192
 10
2785.567638213338
 20
1419.707987959202
 10
2786.305532403951
 20
1421.011963633291
 10
2785.78598029471
 20
1424.335319117778
 10
2786.703895015899
 20
1426.190999805298
 10
2786.654058539544
 20
1427.143600275318
 10
2785.432943770191
 20
1427.59686557104
  0
LWPOLYLINE
  5
1147
330
1F
100
AcDbEntity
  8
0
100
AcDbPolyline
 90
        8
 70
     1
 43
0.0
 10
2782.510990790461
 20
1425.267045826276
 10
2782.284052650383
 20
1424.447973112463
 10
2782.290476701076
 20
1423.805494949083
 10
2782.060159316321
 20
1423.250892612451
 10
2782.14146114167
 20
1422.149903247517
 10
2783.168998846494
 20
1422.803409649964
 10
2783.81271439995
 20
1425.370113342126
 10
2782.92372008184
 20
1427.052072363768
  0
LWPOLYLINE
  5
1148
330
1F
100
AcDbEntity
  8
0
100
AcDbPolyline
 90
        5
 70
     1
 43
0.0
 10
2780.617131684292
 20
1422.260565887317
 10
2781.610817269756
 20
1423.434438099182
 10
2781.63879960176
 20
1425.641181822055
 10
2782.014702016887
 20
1425.948448614228
 10
2780.982450140107
 20
1427.596133073161
  0
LWPOLYLINE
  5
1149
330
1F
100
AcDbEntity
  8
0
100
AcDbPolyline
 90
        8
 70
     1
 43
0.0
 10
2778.797836180024
 20
1422.111622899876
 10
2778.414385924352
 20
1420.267053334153
 10
2778.765295612603
 20
1418.307796021428
 10
2779.421757713125
 20
1418.656247411073
 10
2779.466957566212
 20
1420.547422524792
 10
2779.933570673005
 20
1422.676992912287
 10
2779.374420358781
 20
1426.911229413126
 10
2778.148518137669
 20
1427.1433895072
  0
LWPOLYLINE
  5
114A
330
1F
100
AcDbEntity
  8
0
100
AcDbPolyline
 90
        5
 70
     1
 43
0.0
 10
2772.257579551185
 20
1425.350365058737
 10
2771.71343482368
 20
1425.410813435422
 10
2771.117395774626
 20
1426.778469787252
 10
2771.328815956048
 20
1427.308582353215
 10
2772.328937687018
 20
1427.312408213158
  0
LWPOLYLINE
  5
114B
330
1F
100
AcDbEntity
  8
0
100
AcDbPolyline
 90
        6
 70
     0
 43
0.0
 10
2768.703459923188
 20
1378.432330582942
 10
2768.654110047712
 20
1395.263464692539
 10
2768.176238415063
 20
1404.497900888377
 10
2765.086202796404
 20
1403.689645229469
 10
2762.81101156177
 20
1394.915265881218
 10
2764.715428588964
 20
1378.432330582942
  0
LWPOLYLINE
  5
114C
330
1F
100
AcDbEntity
  8
0
100
AcDbPolyline
 90
        4
 70
     1
 43
0.0
 10
2764.957320358066
 20
1405.040338787743
 10
2768.619261589613
 20
1405.879142287383
 10
2768.117320439709
 20
1408.362946725226
 10
2766.287848921617
 20
1410.190772405121
  0
LWPOLYLINE
  5
114D
330
1F
100
AcDbEntity
  8
0
100
AcDbPolyline
 90
        3
 70
     1
 43
0.0
 10
2766.1715904704
 20
1412.097380032353
 10
2767.96658276041
 20
1409.707006538754
 10
2767.354973910213
 20
1414.182479788019
  0
LWPOLYLINE
  5
114E
330
1F
100
AcDbEntity
  8
0
100
AcDbPolyline
 90
        5
 70
     1
 43
0.0
 10
2768.213765359579
 20
1418.320793370263
 10
2770.046414611724
 20
1414.427332349895
 10
2771.770311878142
 20
1423.649664559917
 10
2770.232676437036
 20
1426.427225437077
 10
2769.264618398922
 20
1420.851240922873
  0
LWPOLYLINE
  5
114F
330
1F
100
AcDbEntity
  8
0
100
AcDbPolyline
 90
        3
 70
     1
 43
0.0
 10
2767.388259011492
 20
1420.537409470854
 10
2769.421694521268
 20
1427.291386497118
 10
2764.566147051823
 20
1426.675999338819
  0
LWPOLYLINE
  5
1150
330
1F
100
AcDbEntity
  8
0
100
AcDbPolyline
 90
        4
 70
     1
 43
0.0
 10
2761.196568856065
 20
1402.302541001387
 10
2763.40515394399
 20
1404.437211557488
 10
2764.911173908244
 20
1412.227794712544
 10
2760.715913302048
 20
1414.256035807591
  0
LWPOLYLINE
  5
1151
330
1F
100
AcDbEntity
  8
0
100
AcDbPolyline
 90
        3
 70
     1
 43
0.0
 10
2762.290481695079
 20
1398.276767631095
 10
2762.888920049751
 20
1401.158702232633
 10
2761.503274670799
 20
1400.831258302832
  0
LWPOLYLINE
  5
1152
330
1F
100
AcDbEntity
  8
0
100
AcDbPolyline
 90
        5
 70
     0
 43
0.0
 10
2760.25739326289
 20
1378.432330582942
 10
2759.719704128718
 20
1393.179718752167
 10
2758.654853732057
 20
1397.416302930345
 10
2756.194884817957
 20
1393.890727154359
 10
2757.448757920997
 20
1378.432330582942
  0
LWPOLYLINE
  5
1153
330
1F
100
AcDbEntity
  8
0
100
AcDbPolyline
 90
        4
 70
     0
 43
0.0
 10
2752.279739276283
 20
1378.432330582942
 10
2750.852630039937
 20
1396.622830627132
 10
2742.746228559766
 20
1405.226700698388
 10
2740.79529004675
 20
1378.432330582942
  0
LWPOLYLINE
  5
1154
330
1F
100
AcDbEntity
  8
0
100
AcDbPolyline
 90
        5
 70
     1
 43
0.0
 10
2742.701306177601
 20
1407.807798168565
 10
2746.816190308854
 20
1404.171681883067
 10
2746.18575087689
 20
1407.556612575018
 10
2745.327084760389
 20
1408.614725746844
 10
2742.533882044585
 20
1410.019848610136
  0
LWPOLYLINE
  5
1155
330
1F
100
AcDbEntity
  8
0
100
AcDbPolyline
 90
        5
 70
     1
 43
0.0
 10
2742.254631085009
 20
1411.252115813451
 10
2744.544694677958
 20
1410.306371733742
 10
2745.56026380945
 20
1409.474848098836
 10
2745.332758145244
 20
1410.643847708771
 10
2742.326958912139
 20
1413.226904577458
  0
LWPOLYLINE
  5
1156
330
1F
100
AcDbEntity
  8
0
100
AcDbPolyline
 90
        5
 70
     1
 43
0.0
 10
2741.768533382716
 20
1417.439591507347
 10
2745.893803509794
 20
1414.698802675254
 10
2744.611006278365
 20
1417.216047212598
 10
2742.891389238339
 20
1420.084424115092
 10
2741.417593567043
 20
1420.190507143561
  0
LWPOLYLINE
  5
1157
330
1F
100
AcDbEntity
  8
0
100
AcDbPolyline
 90
        3
 70
     1
 43
0.0
 10
2740.903343370951
 20
1421.011355688815
 10
2742.497170045829
 20
1421.024508978278
 10
2740.83297914277
 20
1422.889568344177
  0
LWPOLYLINE
  5
1158
330
1F
100
AcDbEntity
  8
0
100
AcDbPolyline
 90
       10
 70
     1
 43
0.0
 10
2745.019691118818
 20
1412.526275719263
 10
2746.355064861295
 20
1410.624052475881
 10
2747.273645513287
 20
1408.204383938977
 10
2747.687644247943
 20
1405.352225049141
 10
2748.911490713786
 20
1401.811012701037
 10
2750.777371648795
 20
1398.890348029925
 10
2749.364965513092
 20
1409.539921858202
 10
2748.611200453703
 20
1411.538721343959
 10
2746.414050131851
 20
1413.34292729347
 10
2742.671054453851
 20
1415.053558150229
  0
LWPOLYLINE
  5
1159
330
1F
100
AcDbEntity
  8
0
100
AcDbPolyline
 90
        3
 70
     1
 43
0.0
 10
2755.444928934452
 20
1396.603385318307
 10
2754.111779149326
 20
1405.963158613657
 10
2758.032898358631
 20
1400.771639929731
  0
LWPOLYLINE
  5
115A
330
1F
100
AcDbEntity
  8
0
100
AcDbPolyline
 90
        5
 70
     1
 43
0.0
 10
2753.409881467268
 20
1409.164839210713
 10
2758.67964666815
 20
1401.733024495351
 10
2757.605034595647
 20
1413.386837661435
 10
2755.049243178275
 20
1417.267909389439
 10
2752.76525290452
 20
1414.083581877987
  0
LWPOLYLINE
  5
115B
330
1F
100
AcDbEntity
  8
0
100
AcDbPolyline
 90
        3
 70
     1
 43
0.0
 10
2751.564507255837
 20
1417.255566571324
 10
2753.785401288289
 20
1421.037562319863
 10
2749.630179087249
 20
1425.847573645189
  0
LWPOLYLINE
  5
115C
330
1F
100
AcDbEntity
  8
0
100
AcDbPolyline
 90
        3
 70
     1
 43
0.0
 10
2754.101471213393
 20
1421.780124974322
 10
2756.612237719682
 20
1426.818613910224
 10
2751.143699210096
 20
1426.425797798845
  0
LWPOLYLINE
  5
115D
330
1F
100
AcDbEntity
  8
0
100
AcDbPolyline
 90
        6
 70
     0
 43
0.0
 10
2740.798735222172
 20
1425.994117312337
 10
2741.020611037463
 20
1424.113974774648
 10
2744.899006798065
 20
1419.218668608758
 10
2748.007135444498
 20
1413.533783321113
 10
2744.524113452255
 20
1426.463137647269
 10
2740.795314768166
 20
1426.023101728978
  0
LWPOLYLINE
  5
115E
330
1F
100
AcDbEntity
  8
0
100
AcDbPolyline
 90
        3
 70
     1
 43
0.0
 10
2758.953542379585
 20
1422.000460184204
 10
2760.160571009605
 20
1426.56269551515
 10
2757.914520552156
 20
1426.50327090242
  0
LWPOLYLINE
  5
115F
330
1F
100
AcDbEntity
  8
0
100
AcDbPolyline
 90
        3
 70
     1
 43
0.0
 10
2755.631636987879
 20
1418.079879848213
 10
2758.111615264191
 20
1414.924519693396
 10
2757.071390651118
 20
1421.542321600965
  0
LWPOLYLINE
  5
1160
330
1F
100
AcDbEntity
  8
0
100
AcDbPolyline
 90
        4
 70
     1
 43
0.0
 10
2759.708367499455
 20
1421.200546176057
 10
2759.971916571667
 20
1415.619584347961
 10
2761.651642151611
 20
1421.417719568942
 10
2761.261084150409
 20
1425.526438989666
  0
LWPOLYLINE
  5
1161
330
1F
100
AcDbEntity
  8
0
100
AcDbPolyline
 90
        4
 70
     1
 43
0.0
 10
2762.327196253084
 20
1423.080279199358
 10
2762.483110279883
 20
1421.639859283007
 10
2764.778879747639
 20
1423.898422078949
 10
2763.656770225573
 20
1426.364919937297
  0
LWPOLYLINE
  5
1162
330
1F
100
AcDbEntity
  8
0
100
AcDbPolyline
 90
        5
 70
     1
 43
0.0
 10
2762.200565413539
 20
1419.629614327132
 10
2761.215030741571
 20
1415.309442184433
 10
2765.126232587782
 20
1413.139506225105
 10
2766.710151384791
 20
1417.543818089559
 10
2765.08358518951
 20
1422.136945092336
  0
LWPOLYLINE
  5
1164
330
1F
100
AcDbEntity
  8
0
100
AcDbPolyline
 90
        2
 70
     0
 43
0.0
 10
2841.176109317746
 20
1378.432347517772
 10
2835.965453932103
 20
1378.432347517772
  0
LWPOLYLINE
  5
1165
330
1F
100
AcDbEntity
  8
0
100
AcDbPolyline
 90
        2
 70
     0
 43
0.0
 10
2830.28166436849
 20
1378.432347517772
 10
2826.29363112729
 20
1378.432347517772
  0
LWPOLYLINE
  5
1166
330
1F
100
AcDbEntity
  8
0
100
AcDbPolyline
 90
        2
 70
     0
 43
0.0
 10
2821.835597140402
 20
1378.432347517771
 10
2819.026961042321
 20
1378.432347517771
  0
LWPOLYLINE
  5
1167
330
1F
100
AcDbEntity
  8
0
100
AcDbPolyline
 90
        2
 70
     0
 43
0.0
 10
2813.85794244264
 20
1378.432347517771
 10
2802.373495774756
 20
1378.432347517771
  0
LWPOLYLINE
  5
1168
330
1F
100
AcDbEntity
  8
0
100
AcDbPolyline
 90
        9
 70
     0
 43
0.0
 10
2845.913049432112
 20
1378.432347517772
 10
2852.373494541705
 20
1378.432347517772
 10
2852.373494541705
 20
1394.499276379573
 10
2851.718689266943
 20
1395.927526769722
 10
2851.326192592517
 20
1404.075797874424
 10
2847.26615328372
 20
1398.624077233135
 10
2844.355886173908
 20
1390.07521377753
 10
2845.357001544035
 20
1380.384299829963
 10
2845.913054256295
 20
1378.432330582942
  0
LWPOLYLINE
  5
1169
330
1F
100
AcDbEntity
  8
0
100
AcDbPolyline
 90
        4
 70
     1
 43
0.0
 10
2849.577691680734
 20
1405.350561080442
 10
2849.195112407834
 20
1403.795756356415
 10
2852.111287923973
 20
1406.542011014377
 10
2851.785046800987
 20
1407.859580018199
  0
LWPOLYLINE
  5
116A
330
1F
100
AcDbEntity
  8
0
100
AcDbPolyline
 90
        4
 70
     1
 43
0.0
 10
2849.846508912536
 20
1410.90909254172
 10
2849.587010836446
 20
1407.672312675405
 10
2851.948106823103
 20
1412.151982480438
 10
2851.719949707496
 20
1415.011046587509
  0
LWPOLYLINE
  5
116B
330
1F
100
AcDbEntity
  8
0
100
AcDbPolyline
 90
       14
 70
     1
 43
0.0
 10
2846.749573820432
 20
1401.210854431967
 10
2847.986363451141
 20
1403.948410399833
 10
2848.566106490802
 20
1406.015286381904
 10
2848.755058457627
 20
1410.548042271665
 10
2849.159031884338
 20
1412.130372944098
 10
2851.849453969262
 20
1417.123598987731
 10
2851.227760916405
 20
1421.63409966213
 10
2849.146812016618
 20
1418.253286727623
 10
2847.866996997665
 20
1416.852738826989
 10
2846.535324812645
 20
1412.186939949653
 10
2843.317115197411
 20
1407.725980167951
 10
2843.524285253527
 20
1403.510032559219
 10
2842.796013665912
 20
1401.097404951891
 10
2843.731336481926
 20
1393.685735716515
  0
LWPOLYLINE
  5
116C
330
1F
100
AcDbEntity
  8
0
100
AcDbPolyline
 90
        8
 70
     1
 43
0.0
 10
2843.473503121564
 20
1419.340474120537
 10
2842.425931831879
 20
1415.309510625712
 10
2842.131146021792
 20
1412.753878727269
 10
2842.138457022219
 20
1409.630059623861
 10
2844.081830378744
 20
1412.51435980982
 10
2844.958280064506
 20
1415.253129704206
 10
2845.94242590473
 20
1416.44125148306
 10
2845.474228110337
 20
1422.695811585825
  0
LWPOLYLINE
  5
116D
330
1F
100
AcDbEntity
  8
0
100
AcDbPolyline
 90
        7
 70
     1
 43
0.0
 10
2849.37399071326
 20
1425.928775461919
 10
2849.449466837649
 20
1424.544913509777
 10
2849.150198379446
 20
1424.048509572215
 10
2849.288726360475
 20
1421.910495166138
 10
2850.678365949847
 20
1424.176800751765
 10
2850.720997960984
 20
1426.185940812203
 10
2850.082200845371
 20
1427.453146554497
  0
LWPOLYLINE
  5
116E
330
1F
100
AcDbEntity
  8
0
100
AcDbPolyline
 90
        4
 70
     1
 43
0.0
 10
2839.771350746576
 20
1406.135656525413
 10
2841.085710517397
 20
1395.82095985909
 10
2833.907942136665
 20
1405.238030749982
 10
2834.243267150975
 20
1405.496169806683
  0
LWPOLYLINE
  5
116F
330
1F
100
AcDbEntity
  8
0
100
AcDbPolyline
 90
        5
 70
     0
 43
0.0
 10
2841.176110703785
 20
1378.432330582942
 10
2840.325408543089
 20
1388.826345500438
 10
2839.203246773115
 20
1394.322839128427
 10
2834.404979652842
 20
1402.124230347947
 10
2835.965455047522
 20
1378.432330582942
  0
LWPOLYLINE
  5
1170
330
1F
100
AcDbEntity
  8
0
100
AcDbPolyline
 90
        3
 70
     1
 43
0.0
 10
2834.153514771383
 20
1407.224267986768
 10
2837.445297379615
 20
1407.825959787872
 10
2835.088816707693
 20
1411.44247950981
  0
LWPOLYLINE
  5
1171
330
1F
100
AcDbEntity
  8
0
100
AcDbPolyline
 90
        4
 70
     1
 43
0.0
 10
2836.499868109698
 20
1414.574768242406
 10
2839.659068617363
 20
1410.854283585565
 10
2839.08219732915
 20
1417.444433219167
 10
2837.812806608056
 20
1419.842650609343
  0
LWPOLYLINE
  5
1172
330
1F
100
AcDbEntity
  8
0
100
AcDbPolyline
 90
        4
 70
     1
 43
0.0
 10
2838.198823657459
 20
1422.592665951157
 10
2839.38954831718
 20
1421.720721283139
 10
2839.521817173298
 20
1422.943589208985
 10
2838.840572811163
 20
1424.871511962953
  0
LWPOLYLINE
  5
1173
330
1F
100
AcDbEntity
  8
0
100
AcDbPolyline
 90
        8
 70
     1
 43
0.0
 10
2846.223468328448
 20
1425.276284189874
 10
2846.503186614122
 20
1422.938185531192
 10
2847.145842708293
 20
1419.707987959202
 10
2847.883736898906
 20
1421.011963633291
 10
2847.364184789665
 20
1424.335319117778
 10
2848.282099510854
 20
1426.190999805298
 10
2848.232263034499
 20
1427.143600275318
 10
2847.011148265146
 20
1427.59686557104
  0
LWPOLYLINE
  5
1174
330
1F
100
AcDbEntity
  8
0
100
AcDbPolyline
 90
        8
 70
     1
 43
0.0
 10
2844.089195285415
 20
1425.267045826276
 10
2843.862257145339
 20
1424.447973112463
 10
2843.868681196031
 20
1423.805494949083
 10
2843.638363811276
 20
1423.250892612451
 10
2843.719665636625
 20
1422.149903247517
 10
2844.747203341449
 20
1422.803409649964
 10
2845.390918894906
 20
1425.370113342126
 10
2844.501924576795
 20
1427.052072363768
  0
LWPOLYLINE
  5
1175
330
1F
100
AcDbEntity
  8
0
100
AcDbPolyline
 90
        5
 70
     1
 43
0.0
 10
2842.195336179247
 20
1422.260565887317
 10
2843.189021764711
 20
1423.434438099182
 10
2843.217004096715
 20
1425.641181822055
 10
2843.592906511842
 20
1425.948448614228
 10
2842.560654635062
 20
1427.596133073161
  0
LWPOLYLINE
  5
1176
330
1F
100
AcDbEntity
  8
0
100
AcDbPolyline
 90
        8
 70
     1
 43
0.0
 10
2840.376040674979
 20
1422.111622899876
 10
2839.992590419306
 20
1420.267053334153
 10
2840.343500107558
 20
1418.307796021428
 10
2840.99996220808
 20
1418.656247411073
 10
2841.045162061167
 20
1420.547422524792
 10
2841.51177516796
 20
1422.676992912287
 10
2840.952624853736
 20
1426.911229413126
 10
2839.726722632624
 20
1427.1433895072
  0
LWPOLYLINE
  5
1177
330
1F
100
AcDbEntity
  8
0
100
AcDbPolyline
 90
        5
 70
     1
 43
0.0
 10
2833.83578404614
 20
1425.350365058737
 10
2833.291639318635
 20
1425.410813435422
 10
2832.695600269582
 20
1426.778469787252
 10
2832.907020451004
 20
1427.308582353215
 10
2833.907142181973
 20
1427.312408213158
  0
LWPOLYLINE
  5
1178
330
1F
100
AcDbEntity
  8
0
100
AcDbPolyline
 90
        6
 70
     0
 43
0.0
 10
2830.281664418143
 20
1378.432330582942
 10
2830.232314542667
 20
1395.263464692539
 10
2829.754442910017
 20
1404.497900888377
 10
2826.664407291359
 20
1403.689645229469
 10
2824.389216056725
 20
1394.915265881218
 10
2826.293633083919
 20
1378.432330582942
  0
LWPOLYLINE
  5
1179
330
1F
100
AcDbEntity
  8
0
100
AcDbPolyline
 90
        4
 70
     1
 43
0.0
 10
2826.535524853021
 20
1405.040338787743
 10
2830.197466084568
 20
1405.879142287383
 10
2829.695524934664
 20
1408.362946725226
 10
2827.866053416573
 20
1410.190772405121
  0
LWPOLYLINE
  5
117A
330
1F
100
AcDbEntity
  8
0
100
AcDbPolyline
 90
        3
 70
     1
 43
0.0
 10
2827.749794965356
 20
1412.097380032353
 10
2829.544787255367
 20
1409.707006538754
 10
2828.933178405168
 20
1414.182479788019
  0
LWPOLYLINE
  5
117B
330
1F
100
AcDbEntity
  8
0
100
AcDbPolyline
 90
        5
 70
     1
 43
0.0
 10
2829.791969854533
 20
1418.320793370263
 10
2831.62461910668
 20
1414.427332349895
 10
2833.348516373097
 20
1423.649664559917
 10
2831.810880931991
 20
1426.427225437077
 10
2830.842822893878
 20
1420.851240922873
  0
LWPOLYLINE
  5
117C
330
1F
100
AcDbEntity
  8
0
100
AcDbPolyline
 90
        3
 70
     1
 43
0.0
 10
2828.966463506447
 20
1420.537409470854
 10
2830.999899016223
 20
1427.291386497118
 10
2826.144351546778
 20
1426.675999338819
  0
LWPOLYLINE
  5
117D
330
1F
100
AcDbEntity
  8
0
100
AcDbPolyline
 90
        4
 70
     1
 43
0.0
 10
2822.77477335102
 20
1402.302541001387
 10
2824.983358438945
 20
1404.437211557488
 10
2826.489378403199
 20
1412.227794712544
 10
2822.294117797003
 20
1414.256035807591
  0
LWPOLYLINE
  5
117E
330
1F
100
AcDbEntity
  8
0
100
AcDbPolyline
 90
        3
 70
     1
 43
0.0
 10
2823.868686190034
 20
1398.276767631095
 10
2824.467124544706
 20
1401.158702232633
 10
2823.081479165754
 20
1400.831258302832
  0
LWPOLYLINE
  5
117F
330
1F
100
AcDbEntity
  8
0
100
AcDbPolyline
 90
        5
 70
     0
 43
0.0
 10
2821.835597757845
 20
1378.432330582942
 10
2821.297908623672
 20
1393.179718752167
 10
2820.233058227012
 20
1397.416302930345
 10
2817.773089312913
 20
1393.890727154359
 10
2819.026962415952
 20
1378.432330582942
  0
LWPOLYLINE
  5
1180
330
1F
100
AcDbEntity
  8
0
100
AcDbPolyline
 90
        4
 70
     0
 43
0.0
 10
2813.857943771238
 20
1378.432330582942
 10
2812.430834534892
 20
1396.622830627132
 10
2804.324433054721
 20
1405.226700698388
 10
2802.373494541705
 20
1378.432330582942
  0
LWPOLYLINE
  5
1181
330
1F
100
AcDbEntity
  8
0
100
AcDbPolyline
 90
        5
 70
     1
 43
0.0
 10
2804.279510672556
 20
1407.807798168565
 10
2808.394394803809
 20
1404.171681883067
 10
2807.763955371845
 20
1407.556612575018
 10
2806.905289255344
 20
1408.614725746844
 10
2804.11208653954
 20
1410.019848610136
  0
LWPOLYLINE
  5
1182
330
1F
100
AcDbEntity
  8
0
100
AcDbPolyline
 90
        5
 70
     1
 43
0.0
 10
2803.832835579964
 20
1411.252115813451
 10
2806.122899172913
 20
1410.306371733742
 10
2807.138468304405
 20
1409.474848098836
 10
2806.910962640199
 20
1410.643847708771
 10
2803.905163407094
 20
1413.226904577458
  0
LWPOLYLINE
  5
1183
330
1F
100
AcDbEntity
  8
0
100
AcDbPolyline
 90
        5
 70
     1
 43
0.0
 10
2803.346737877671
 20
1417.439591507347
 10
2807.472008004749
 20
1414.698802675254
 10
2806.18921077332
 20
1417.216047212598
 10
2804.469593733294
 20
1420.084424115092
 10
2802.995798061998
 20
1420.190507143561
  0
LWPOLYLINE
  5
1184
330
1F
100
AcDbEntity
  8
0
100
AcDbPolyline
 90
        3
 70
     1
 43
0.0
 10
2802.481547865906
 20
1421.011355688815
 10
2804.075374540784
 20
1421.024508978278
 10
2802.411183637725
 20
1422.889568344177
  0
LWPOLYLINE
  5
1185
330
1F
100
AcDbEntity
  8
0
100
AcDbPolyline
 90
       10
 70
     1
 43
0.0
 10
2806.597895613773
 20
1412.526275719263
 10
2807.93326935625
 20
1410.624052475881
 10
2808.851850008242
 20
1408.204383938977
 10
2809.265848742898
 20
1405.352225049141
 10
2810.489695208741
 20
1401.811012701037
 10
2812.35557614375
 20
1398.890348029925
 10
2810.943170008048
 20
1409.539921858202
 10
2810.189404948658
 20
1411.538721343959
 10
2807.992254626806
 20
1413.34292729347
 10
2804.249258948806
 20
1415.053558150229
  0
LWPOLYLINE
  5
1186
330
1F
100
AcDbEntity
  8
0
100
AcDbPolyline
 90
        3
 70
     1
 43
0.0
 10
2817.023133429407
 20
1396.603385318307
 10
2815.689983644281
 20
1405.963158613657
 10
2819.611102853586
 20
1400.771639929731
  0
LWPOLYLINE
  5
1187
330
1F
100
AcDbEntity
  8
0
100
AcDbPolyline
 90
        5
 70
     1
 43
0.0
 10
2814.988085962223
 20
1409.164839210713
 10
2820.257851163105
 20
1401.733024495351
 10
2819.183239090602
 20
1413.386837661435
 10
2816.62744767323
 20
1417.267909389439
 10
2814.343457399475
 20
1414.083581877987
  0
LWPOLYLINE
  5
1188
330
1F
100
AcDbEntity
  8
0
100
AcDbPolyline
 90
        3
 70
     1
 43
0.0
 10
2813.142711750792
 20
1417.255566571324
 10
2815.363605783245
 20
1421.037562319863
 10
2811.208383582204
 20
1425.847573645189
  0
LWPOLYLINE
  5
1189
330
1F
100
AcDbEntity
  8
0
100
AcDbPolyline
 90
        3
 70
     1
 43
0.0
 10
2815.679675708348
 20
1421.780124974322
 10
2818.190442214637
 20
1426.818613910224
 10
2812.721903705051
 20
1426.425797798845
  0
LWPOLYLINE
  5
118A
330
1F
100
AcDbEntity
  8
0
100
AcDbPolyline
 90
        6
 70
     0
 43
0.0
 10
2802.376939717127
 20
1425.994117312337
 10
2802.598815532419
 20
1424.113974774648
 10
2806.477211293021
 20
1419.218668608758
 10
2809.585339939453
 20
1413.533783321113
 10
2806.10231794721
 20
1426.463137647269
 10
2802.373519263121
 20
1426.023101728978
  0
LWPOLYLINE
  5
118B
330
1F
100
AcDbEntity
  8
0
100
AcDbPolyline
 90
        3
 70
     1
 43
0.0
 10
2820.53174687454
 20
1422.000460184204
 10
2821.73877550456
 20
1426.56269551515
 10
2819.492725047111
 20
1426.50327090242
  0
LWPOLYLINE
  5
118C
330
1F
100
AcDbEntity
  8
0
100
AcDbPolyline
 90
        3
 70
     1
 43
0.0
 10
2817.209841482834
 20
1418.079879848213
 10
2819.689819759145
 20
1414.924519693396
 10
2818.649595146073
 20
1421.542321600965
  0
LWPOLYLINE
  5
118D
330
1F
100
AcDbEntity
  8
0
100
AcDbPolyline
 90
        4
 70
     1
 43
0.0
 10
2821.28657199441
 20
1421.200546176057
 10
2821.550121066622
 20
1415.619584347961
 10
2823.229846646565
 20
1421.417719568942
 10
2822.839288645365
 20
1425.526438989666
  0
LWPOLYLINE
  5
118E
330
1F
100
AcDbEntity
  8
0
100
AcDbPolyline
 90
        4
 70
     1
 43
0.0
 10
2823.905400748039
 20
1423.080279199358
 10
2824.061314774838
 20
1421.639859283007
 10
2826.357084242594
 20
1423.898422078949
 10
2825.234974720528
 20
1426.364919937297
  0
LWPOLYLINE
  5
118F
330
1F
100
AcDbEntity
  8
0
100
AcDbPolyline
 90
        5
 70
     1
 43
0.0
 10
2823.778769908495
 20
1419.629614327132
 10
2822.793235236526
 20
1415.309442184433
 10
2826.704437082737
 20
1413.139506225105
 10
2828.288355879745
 20
1417.543818089559
 10
2826.661789684465
 20
1422.136945092336
  0
LWPOLYLINE
  5
11FB
330
1F
100
AcDbEntity
  8
0
100
AcDbPolyline
 90
        2
 70
     0
 43
0.0
 10
2722.126822942525
 20
1306.955080276856
 10
2716.916167556882
 20
1306.955080276856
  0
LWPOLYLINE
  5
11FC
330
1F
100
AcDbEntity
  8
0
100
AcDbPolyline
 90
        2
 70
     0
 43
0.0
 10
2711.232377993269
 20
1306.955080276856
 10
2707.244344752069
 20
1306.955080276856
  0
LWPOLYLINE
  5
11FD
330
1F
100
AcDbEntity
  8
0
100
AcDbPolyline
 90
        2
 70
     0
 43
0.0
 10
2702.786310765181
 20
1306.955080276855
 10
2699.9776746671
 20
1306.955080276855
  0
LWPOLYLINE
  5
11FE
330
1F
100
AcDbEntity
  8
0
100
AcDbPolyline
 90
        2
 70
     0
 43
0.0
 10
2694.808656067419
 20
1306.955080276855
 10
2683.324209399535
 20
1306.955080276855
  0
LWPOLYLINE
  5
11FF
330
1F
100
AcDbEntity
  8
0
100
AcDbPolyline
 90
        9
 70
     0
 43
0.0
 10
2726.863763056891
 20
1306.955080276856
 10
2733.324208166485
 20
1306.955080276856
 10
2733.324208166485
 20
1323.022009138657
 10
2732.669402891721
 20
1324.450259528806
 10
2732.276906217296
 20
1332.598530633508
 10
2728.216866908499
 20
1327.146809992219
 10
2725.306599798687
 20
1318.597946536615
 10
2726.307715168814
 20
1308.907032589047
 10
2726.863767881074
 20
1306.955063342026
  0
LWPOLYLINE
  5
1200
330
1F
100
AcDbEntity
  8
0
100
AcDbPolyline
 90
        4
 70
     1
 43
0.0
 10
2730.528405305514
 20
1333.873293839526
 10
2730.145826032614
 20
1332.318489115499
 10
2733.062001548751
 20
1335.064743773461
 10
2732.735760425766
 20
1336.382312777283
  0
LWPOLYLINE
  5
1201
330
1F
100
AcDbEntity
  8
0
100
AcDbPolyline
 90
        4
 70
     1
 43
0.0
 10
2730.797222537316
 20
1339.431825300804
 10
2730.537724461224
 20
1336.195045434489
 10
2732.898820447881
 20
1340.674715239522
 10
2732.670663332275
 20
1343.533779346593
  0
LWPOLYLINE
  5
1202
330
1F
100
AcDbEntity
  8
0
100
AcDbPolyline
 90
       14
 70
     1
 43
0.0
 10
2727.700287445211
 20
1329.733587191051
 10
2728.93707707592
 20
1332.471143158917
 10
2729.516820115581
 20
1334.538019140988
 10
2729.705772082406
 20
1339.070775030749
 10
2730.109745509116
 20
1340.653105703182
 10
2732.800167594041
 20
1345.646331746815
 10
2732.178474541185
 20
1350.156832421214
 10
2730.097525641398
 20
1346.776019486707
 10
2728.817710622444
 20
1345.375471586073
 10
2727.486038437425
 20
1340.709672708737
 10
2724.26782882219
 20
1336.248712927035
 10
2724.474998878305
 20
1332.032765318303
 10
2723.746727290691
 20
1329.620137710975
 10
2724.682050106706
 20
1322.208468475599
  0
LWPOLYLINE
  5
1203
330
1F
100
AcDbEntity
  8
0
100
AcDbPolyline
 90
        8
 70
     1
 43
0.0
 10
2724.424216746343
 20
1347.863206879621
 10
2723.376645456659
 20
1343.832243384796
 10
2723.081859646571
 20
1341.276611486353
 10
2723.089170646999
 20
1338.152792382945
 10
2725.032544003523
 20
1341.037092568904
 10
2725.908993689284
 20
1343.77586246329
 10
2726.893139529511
 20
1344.963984242144
 10
2726.424941735116
 20
1351.218544344909
  0
LWPOLYLINE
  5
1204
330
1F
100
AcDbEntity
  8
0
100
AcDbPolyline
 90
        7
 70
     1
 43
0.0
 10
2730.324704338038
 20
1354.451508221003
 10
2730.400180462428
 20
1353.067646268861
 10
2730.100912004225
 20
1352.571242331299
 10
2730.239439985254
 20
1350.433227925222
 10
2731.629079574626
 20
1352.699533510849
 10
2731.671711585764
 20
1354.708673571287
 10
2731.03291447015
 20
1355.975879313581
  0
LWPOLYLINE
  5
1205
330
1F
100
AcDbEntity
  8
0
100
AcDbPolyline
 90
        4
 70
     1
 43
0.0
 10
2720.722064371355
 20
1334.658389284497
 10
2722.036424142176
 20
1324.343692618174
 10
2714.858655761444
 20
1333.760763509066
 10
2715.193980775755
 20
1334.018902565767
  0
LWPOLYLINE
  5
1206
330
1F
100
AcDbEntity
  8
0
100
AcDbPolyline
 90
        5
 70
     0
 43
0.0
 10
2722.126824328563
 20
1306.955063342026
 10
2721.276122167868
 20
1317.349078259522
 10
2720.153960397894
 20
1322.845571887511
 10
2715.355693277621
 20
1330.646963107031
 10
2716.916168672301
 20
1306.955063342026
  0
LWPOLYLINE
  5
1207
330
1F
100
AcDbEntity
  8
0
100
AcDbPolyline
 90
        3
 70
     1
 43
0.0
 10
2715.104228396162
 20
1335.747000745852
 10
2718.396011004394
 20
1336.348692546956
 10
2716.039530332472
 20
1339.965212268894
  0
LWPOLYLINE
  5
1208
330
1F
100
AcDbEntity
  8
0
100
AcDbPolyline
 90
        4
 70
     1
 43
0.0
 10
2717.450581734477
 20
1343.09750100149
 10
2720.609782242141
 20
1339.377016344649
 10
2720.032910953929
 20
1345.967165978251
 10
2718.763520232835
 20
1348.365383368427
  0
LWPOLYLINE
  5
1209
330
1F
100
AcDbEntity
  8
0
100
AcDbPolyline
 90
        4
 70
     1
 43
0.0
 10
2719.149537282238
 20
1351.115398710241
 10
2720.340261941958
 20
1350.243454042223
 10
2720.472530798078
 20
1351.466321968069
 10
2719.791286435941
 20
1353.394244722037
  0
LWPOLYLINE
  5
120A
330
1F
100
AcDbEntity
  8
0
100
AcDbPolyline
 90
        8
 70
     1
 43
0.0
 10
2727.174181953227
 20
1353.799016948958
 10
2727.4539002389
 20
1351.460918290276
 10
2728.096556333072
 20
1348.230720718286
 10
2728.834450523685
 20
1349.534696392375
 10
2728.314898414443
 20
1352.858051876862
 10
2729.232813135633
 20
1354.713732564382
 10
2729.182976659278
 20
1355.666333034402
 10
2727.961861889925
 20
1356.119598330124
  0
LWPOLYLINE
  5
120B
330
1F
100
AcDbEntity
  8
0
100
AcDbPolyline
 90
        8
 70
     1
 43
0.0
 10
2725.039908910194
 20
1353.78977858536
 10
2724.812970770118
 20
1352.970705871547
 10
2724.819394820809
 20
1352.328227708167
 10
2724.589077436056
 20
1351.773625371535
 10
2724.670379261404
 20
1350.672636006601
 10
2725.697916966228
 20
1351.326142409048
 10
2726.341632519684
 20
1353.89284610121
 10
2725.452638201573
 20
1355.574805122852
  0
LWPOLYLINE
  5
120C
330
1F
100
AcDbEntity
  8
0
100
AcDbPolyline
 90
        5
 70
     1
 43
0.0
 10
2723.146049804026
 20
1350.783298646401
 10
2724.139735389491
 20
1351.957170858266
 10
2724.167717721494
 20
1354.163914581139
 10
2724.543620136621
 20
1354.471181373312
 10
2723.511368259841
 20
1356.118865832245
  0
LWPOLYLINE
  5
120D
330
1F
100
AcDbEntity
  8
0
100
AcDbPolyline
 90
        8
 70
     1
 43
0.0
 10
2721.326754299759
 20
1350.63435565896
 10
2720.943304044085
 20
1348.789786093237
 10
2721.294213732337
 20
1346.830528780512
 10
2721.950675832859
 20
1347.178980170157
 10
2721.995875685946
 20
1349.070155283876
 10
2722.462488792738
 20
1351.199725671371
 10
2721.903338478515
 20
1355.43396217221
 10
2720.677436257403
 20
1355.666122266284
  0
LWPOLYLINE
  5
120E
330
1F
100
AcDbEntity
  8
0
100
AcDbPolyline
 90
        5
 70
     1
 43
0.0
 10
2714.78649767092
 20
1353.873097817821
 10
2714.242352943414
 20
1353.933546194507
 10
2713.64631389436
 20
1355.301202546336
 10
2713.857734075783
 20
1355.831315112299
 10
2714.857855806753
 20
1355.835140972242
  0
LWPOLYLINE
  5
120F
330
1F
100
AcDbEntity
  8
0
100
AcDbPolyline
 90
        6
 70
     0
 43
0.0
 10
2711.232378042923
 20
1306.955063342026
 10
2711.183028167446
 20
1323.786197451623
 10
2710.705156534797
 20
1333.020633647461
 10
2707.615120916138
 20
1332.212377988553
 10
2705.339929681504
 20
1323.437998640302
 10
2707.244346708697
 20
1306.955063342026
  0
LWPOLYLINE
  5
1210
330
1F
100
AcDbEntity
  8
0
100
AcDbPolyline
 90
        4
 70
     1
 43
0.0
 10
2707.486238477799
 20
1333.563071546827
 10
2711.148179709347
 20
1334.401875046467
 10
2710.646238559443
 20
1336.88567948431
 10
2708.81676704135
 20
1338.713505164205
  0
LWPOLYLINE
  5
1211
330
1F
100
AcDbEntity
  8
0
100
AcDbPolyline
 90
        3
 70
     1
 43
0.0
 10
2708.700508590133
 20
1340.620112791437
 10
2710.495500880146
 20
1338.229739297838
 10
2709.883892029947
 20
1342.705212547103
  0
LWPOLYLINE
  5
1212
330
1F
100
AcDbEntity
  8
0
100
AcDbPolyline
 90
        5
 70
     1
 43
0.0
 10
2710.742683479312
 20
1346.843526129347
 10
2712.575332731459
 20
1342.950065108979
 10
2714.299229997876
 20
1352.172397319001
 10
2712.76159455677
 20
1354.949958196161
 10
2711.793536518657
 20
1349.373973681957
  0
LWPOLYLINE
  5
1213
330
1F
100
AcDbEntity
  8
0
100
AcDbPolyline
 90
        3
 70
     1
 43
0.0
 10
2709.917177131226
 20
1349.060142229938
 10
2711.950612641002
 20
1355.814119256202
 10
2707.095065171558
 20
1355.198732097903
  0
LWPOLYLINE
  5
1214
330
1F
100
AcDbEntity
  8
0
100
AcDbPolyline
 90
        4
 70
     1
 43
0.0
 10
2703.725486975799
 20
1330.825273760471
 10
2705.934072063724
 20
1332.959944316572
 10
2707.440092027978
 20
1340.750527471628
 10
2703.244831421784
 20
1342.778768566675
  0
LWPOLYLINE
  5
1215
330
1F
100
AcDbEntity
  8
0
100
AcDbPolyline
 90
        3
 70
     1
 43
0.0
 10
2704.819399814813
 20
1326.799500390179
 10
2705.417838169485
 20
1329.681434991717
 10
2704.032192790532
 20
1329.353991061916
  0
LWPOLYLINE
  5
1216
330
1F
100
AcDbEntity
  8
0
100
AcDbPolyline
 90
        5
 70
     0
 43
0.0
 10
2702.786311382624
 20
1306.955063342026
 10
2702.24862224845
 20
1321.702451511251
 10
2701.183771851792
 20
1325.939035689429
 10
2698.723802937691
 20
1322.413459913443
 10
2699.97767604073
 20
1306.955063342026
  0
LWPOLYLINE
  5
1217
330
1F
100
AcDbEntity
  8
0
100
AcDbPolyline
 90
        4
 70
     0
 43
0.0
 10
2694.808657396017
 20
1306.955063342026
 10
2693.381548159671
 20
1325.145563386216
 10
2685.2751466795
 20
1333.749433457472
 10
2683.324208166485
 20
1306.955063342026
  0
LWPOLYLINE
  5
1218
330
1F
100
AcDbEntity
  8
0
100
AcDbPolyline
 90
        5
 70
     1
 43
0.0
 10
2685.230224297335
 20
1336.330530927649
 10
2689.345108428588
 20
1332.694414642151
 10
2688.714668996624
 20
1336.079345334102
 10
2687.856002880124
 20
1337.137458505928
 10
2685.062800164319
 20
1338.54258136922
  0
LWPOLYLINE
  5
1219
330
1F
100
AcDbEntity
  8
0
100
AcDbPolyline
 90
        5
 70
     1
 43
0.0
 10
2684.783549204743
 20
1339.774848572535
 10
2687.073612797692
 20
1338.829104492826
 10
2688.089181929183
 20
1337.99758085792
 10
2687.861676264978
 20
1339.166580467855
 10
2684.855877031874
 20
1341.749637336542
  0
LWPOLYLINE
  5
121A
330
1F
100
AcDbEntity
  8
0
100
AcDbPolyline
 90
        5
 70
     1
 43
0.0
 10
2684.29745150245
 20
1345.962324266431
 10
2688.422721629529
 20
1343.221535434338
 10
2687.1399243981
 20
1345.738779971682
 10
2685.420307358072
 20
1348.607156874176
 10
2683.946511686778
 20
1348.713239902645
  0
LWPOLYLINE
  5
121B
330
1F
100
AcDbEntity
  8
0
100
AcDbPolyline
 90
        3
 70
     1
 43
0.0
 10
2683.432261490685
 20
1349.534088447899
 10
2685.026088165563
 20
1349.547241737362
 10
2683.361897262504
 20
1351.412301103261
  0
LWPOLYLINE
  5
121C
330
1F
100
AcDbEntity
  8
0
100
AcDbPolyline
 90
       10
 70
     1
 43
0.0
 10
2687.548609238552
 20
1341.049008478347
 10
2688.883982981029
 20
1339.146785234965
 10
2689.80256363302
 20
1336.727116698061
 10
2690.216562367677
 20
1333.874957808225
 10
2691.44040883352
 20
1330.333745460121
 10
2693.306289768529
 20
1327.413080789009
 10
2691.893883632826
 20
1338.062654617286
 10
2691.140118573436
 20
1340.061454103043
 10
2688.942968251585
 20
1341.865660052554
 10
2685.199972573585
 20
1343.576290909313
  0
LWPOLYLINE
  5
121D
330
1F
100
AcDbEntity
  8
0
100
AcDbPolyline
 90
        3
 70
     1
 43
0.0
 10
2697.973847054186
 20
1325.126118077391
 10
2696.640697269061
 20
1334.485891372741
 10
2700.561816478365
 20
1329.294372688816
  0
LWPOLYLINE
  5
121E
330
1F
100
AcDbEntity
  8
0
100
AcDbPolyline
 90
        5
 70
     1
 43
0.0
 10
2695.938799587002
 20
1337.687571969797
 10
2701.208564787884
 20
1330.255757254435
 10
2700.133952715381
 20
1341.909570420519
 10
2697.57816129801
 20
1345.790642148523
 10
2695.294171024253
 20
1342.606314637071
  0
LWPOLYLINE
  5
121F
330
1F
100
AcDbEntity
  8
0
100
AcDbPolyline
 90
        3
 70
     1
 43
0.0
 10
2694.09342537557
 20
1345.778299330408
 10
2696.314319408023
 20
1349.560295078947
 10
2692.159097206982
 20
1354.370306404273
  0
LWPOLYLINE
  5
1220
330
1F
100
AcDbEntity
  8
0
100
AcDbPolyline
 90
        3
 70
     1
 43
0.0
 10
2696.630389333127
 20
1350.302857733406
 10
2699.141155839416
 20
1355.341346669308
 10
2693.672617329829
 20
1354.948530557929
  0
LWPOLYLINE
  5
1221
330
1F
100
AcDbEntity
  8
0
100
AcDbPolyline
 90
        6
 70
     0
 43
0.0
 10
2683.327653341905
 20
1354.516850071421
 10
2683.549529157198
 20
1352.636707533732
 10
2687.427924917801
 20
1347.741401367842
 10
2690.536053564232
 20
1342.056516080197
 10
2687.05303157199
 20
1354.985870406353
 10
2683.324232887901
 20
1354.545834488062
  0
LWPOLYLINE
  5
1222
330
1F
100
AcDbEntity
  8
0
100
AcDbPolyline
 90
        3
 70
     1
 43
0.0
 10
2701.482460499319
 20
1350.523192943288
 10
2702.689489129339
 20
1355.085428274234
 10
2700.443438671891
 20
1355.026003661504
  0
LWPOLYLINE
  5
1223
330
1F
100
AcDbEntity
  8
0
100
AcDbPolyline
 90
        3
 70
     1
 43
0.0
 10
2698.160555107612
 20
1346.602612607297
 10
2700.640533383924
 20
1343.44725245248
 10
2699.600308770852
 20
1350.065054360049
  0
LWPOLYLINE
  5
1224
330
1F
100
AcDbEntity
  8
0
100
AcDbPolyline
 90
        4
 70
     1
 43
0.0
 10
2702.237285619188
 20
1349.723278935141
 10
2702.500834691401
 20
1344.142317107045
 10
2704.180560271344
 20
1349.940452328026
 10
2703.790002270143
 20
1354.04917174875
  0
LWPOLYLINE
  5
1225
330
1F
100
AcDbEntity
  8
0
100
AcDbPolyline
 90
        4
 70
     1
 43
0.0
 10
2704.856114372818
 20
1351.603011958442
 10
2705.012028399616
 20
1350.162592042091
 10
2707.307797867374
 20
1352.421154838033
 10
2706.185688345307
 20
1354.887652696382
  0
LWPOLYLINE
  5
1226
330
1F
100
AcDbEntity
  8
0
100
AcDbPolyline
 90
        5
 70
     1
 43
0.0
 10
2704.729483533273
 20
1348.152347086216
 10
2703.743948861305
 20
1343.832174943517
 10
2707.655150707516
 20
1341.662238984189
 10
2709.239069504524
 20
1346.066550848643
 10
2707.612503309245
 20
1350.65967785142
  0
LWPOLYLINE
  5
1603
330
1F
100
AcDbEntity
  8
0
100
AcDbPolyline
 90
       20
 70
     1
 43
0.0
 10
2707.143514313491
 20
1367.432347517771
 10
2707.143514313491
 20
1373.432347517772
 10
2732.143514313491
 20
1373.432347517772
 10
2732.143514313491
 20
1398.432347517772
 10
2729.143514313491
 20
1398.432347517772
 10
2729.143514313491
 20
1408.432347517772
 10
2732.143514313491
 20
1408.432347517772
 10
2732.143514313491
 20
1433.432347517771
 10
2707.143514313491
 20
1433.432347517771
 10
2707.143514313491
 20
1436.432347517772
 10
2697.14351431349
 20
1436.432347517772
 10
2697.14351431349
 20
1433.432347517771
 10
2672.143514313491
 20
1433.432347517771
 10
2672.143514313491
 20
1408.432347517772
 10
2675.143514313491
 20
1408.432347517772
 10
2675.143514313491
 20
1398.432347517772
 10
2672.143514313491
 20
1398.432347517772
 10
2672.143514313491
 20
1373.432347517772
 10
2697.14351431349
 20
1373.432347517772
 10
2697.14351431349
 20
1367.432347517772
  0
LWPOLYLINE
  5
1617
330
1F
100
AcDbEntity
  8
0
100
AcDbPolyline
 90
       20
 70
     1
 43
0.0
 10
2713.324229591038
 20
1295.955080276855
 10
2713.324229591038
 20
1301.955080276856
 10
2735.324229591037
 20
1301.955080276856
 10
2735.324229591037
 20
1326.955080276856
 10
2738.324229591037
 20
1326.955080276856
 10
2738.324229591038
 20
1336.955080276856
 10
2735.324229591037
 20
1336.955080276856
 10
2735.324229591037
 20
1361.955080276855
 10
2713.324229591038
 20
1361.955080276855
 10
2713.324229591038
 20
1364.955080276855
 10
2703.324229591037
 20
1364.955080276855
 10
2703.324229591037
 20
1361.955080276855
 10
2681.324229591038
 20
1361.955080276855
 10
2681.324229591038
 20
1336.955080276856
 10
2678.324229591038
 20
1336.955080276856
 10
2678.324229591037
 20
1326.955080276856
 10
2681.324229591038
 20
1326.955080276856
 10
2681.324229591038
 20
1301.955080276856
 10
2703.324229591037
 20
1301.955080276856
 10
2703.324229591037
 20
1295.955080276856
  0
LWPOLYLINE
  5
162B
330
1F
100
AcDbEntity
  8
0
100
AcDbPolyline
 90
       20
 70
     1
 43
0.0
 10
2832.373515966261
 20
1367.432347517771
 10
2832.373515966258
 20
1373.432347517772
 10
2854.373515966259
 20
1373.432347517772
 10
2854.373515966259
 20
1398.432347517772
 10
2857.373515966258
 20
1398.432347517772
 10
2857.373515966258
 20
1408.432347517772
 10
2854.373515966259
 20
1408.432347517772
 10
2854.373515966259
 20
1433.432347517771
 10
2832.373515966258
 20
1433.432347517771
 10
2832.373515966258
 20
1436.432347517771
 10
2822.373515966259
 20
1436.432347517771
 10
2822.373515966259
 20
1433.432347517771
 10
2800.373515966258
 20
1433.432347517771
 10
2800.373515966258
 20
1408.432347517772
 10
2797.373515966259
 20
1408.432347517772
 10
2797.373515966258
 20
1398.432347517772
 10
2800.373515966261
 20
1398.432347517772
 10
2800.373515966258
 20
1373.432347517772
 10
2822.373515966259
 20
1373.432347517772
 10
2822.373515966259
 20
1367.432347517772
  0
LWPOLYLINE
  5
163F
330
1F
100
AcDbEntity
  8
0
100
AcDbPolyline
 90
       20
 70
     1
 43
0.0
 10
2760.79529004675
 20
1367.432347517771
 10
2760.79529004675
 20
1373.432347517772
 10
2735.79529004675
 20
1373.432347517772
 10
2735.79529004675
 20
1398.432347517772
 10
2738.79529004675
 20
1398.432347517772
 10
2738.79529004675
 20
1408.432347517772
 10
2735.79529004675
 20
1408.432347517772
 10
2735.79529004675
 20
1433.432347517771
 10
2760.79529004675
 20
1433.432347517771
 10
2760.79529004675
 20
1436.432347517772
 10
2770.79529004675
 20
1436.432347517772
 10
2770.79529004675
 20
1433.432347517771
 10
2795.79529004675
 20
1433.432347517771
 10
2795.79529004675
 20
1408.432347517772
 10
2792.79529004675
 20
1408.432347517772
 10
2792.79529004675
 20
1398.432347517772
 10
2795.79529004675
 20
1398.432347517772
 10
2795.79529004675
 20
1373.432347517772
 10
2770.79529004675
 20
1373.432347517772
 10
2770.79529004675
 20
1367.432347517772
  0
CIRCLE
  5
1CAA
330
1F
100
AcDbEntity
  8
0
100
AcDbCircle
 10
2570.71481561743
 20
1050.423810802634
 30
0.0
 40
2.5
  0
LWPOLYLINE
  5
2634
330
1F
100
AcDbEntity
  8
0
100
AcDbPolyline
 90
        2
 70
     0
 43
0.0
 10
2644.073681767528
 20
1332.955080276855
 10
2644.073681767528
 20
1361.955080276855
  0
LWPOLYLINE
  5
2635
330
1F
100
AcDbEntity
  8
0
100
AcDbPolyline
 90
        2
 70
     0
 43
0.0
 10
2644.073681767528
 20
1298.955080276855
 10
2644.073681767528
 20
1327.955080276855
  0
LWPOLYLINE
  5
2636
330
1F
100
AcDbEntity
  8
0
100
AcDbPolyline
 90
        2
 70
     0
 43
0.0
 10
2611.073681767529
 20
1301.455080276855
 10
2611.073681767529
 20
1359.455080276855
  0
LWPOLYLINE
  5
2637
330
1F
100
AcDbEntity
  8
0
100
AcDbPolyline
 90
        2
 70
     0
 43
0.0
 10
2642.073681767528
 20
1301.455080276855
 10
2642.073681767528
 20
1359.455080276855
  0
LWPOLYLINE
  5
2638
330
1F
100
AcDbEntity
  8
0
100
AcDbPolyline
 90
        6
 70
     0
 43
0.0
 10
2613.073681767532
 20
1332.955080276855
 10
2613.073681767532
 20
1361.955080276855
 10
2625.073681767529
 20
1361.955080276855
 10
2630.073681767529
 20
1361.955080276855
 10
2640.073681767529
 20
1361.955080276855
 10
2640.073681767529
 20
1332.955080276855
  0
LWPOLYLINE
  5
2639
330
1F
100
AcDbEntity
  8
0
100
AcDbPolyline
 90
        6
 70
     0
 43
0.0
 10
2640.073681767527
 20
1327.955080276855
 10
2640.073681767529
 20
1298.955080276855
 10
2630.073681767529
 20
1298.955080276855
 10
2625.073681767529
 20
1298.955080276855
 10
2613.073681767532
 20
1298.955080276855
 10
2613.073681767532
 20
1327.955080276855
  0
LWPOLYLINE
  5
263A
330
1F
100
AcDbEntity
  8
0
100
AcDbPolyline
 90
        4
 70
     1
 43
0.0
 10
2659.073681767528
 20
1358.955080276855
 10
2654.073681767529
 20
1358.955080276855
 10
2654.073681767529
 20
1355.955080276855
 10
2659.073681767528
 20
1355.955080276855
  0
LWPOLYLINE
  5
263D
330
1F
100
AcDbEntity
  8
0
100
AcDbPolyline
 90
        4
 70
     1
 43
0.0
 10
2669.073681767529
 20
1358.955080276855
 10
2669.073681767529
 20
1355.955080276855
 10
2664.073681767529
 20
1355.955080276855
 10
2664.073681767529
 20
1358.955080276855
  0
LWPOLYLINE
  5
2642
330
1F
100
AcDbEntity
  8
0
100
AcDbPolyline
 90
        4
 70
     1
 43
0.0
 10
2659.073681767528
 20
1301.955080276855
 10
2654.073681767529
 20
1301.955080276855
 10
2654.073681767529
 20
1304.955080276855
 10
2659.073681767528
 20
1304.955080276855
  0
LWPOLYLINE
  5
2645
330
1F
100
AcDbEntity
  8
0
100
AcDbPolyline
 90
        4
 70
     1
 43
0.0
 10
2669.073681767529
 20
1301.955080276855
 10
2669.073681767529
 20
1304.955080276855
 10
2664.073681767529
 20
1304.955080276855
 10
2664.073681767529
 20
1301.955080276855
  0
LWPOLYLINE
  5
264A
330
1F
100
AcDbEntity
  8
0
100
AcDbPolyline
 90
        6
 70
     0
 43
0.0
 10
2636.073681767529
 20
1327.955080276855
 10
2636.073681767529
 20
1298.955080276855
 10
2674.073681767529
 20
1298.955080276855
 10
2674.073681767529
 20
1361.955080276855
 10
2636.073681767529
 20
1361.955080276855
 10
2636.073681767529
 20
1332.955080276855
  0
LWPOLYLINE
  5
264D
330
1F
100
AcDbEntity
  8
0
100
AcDbPolyline
 90
        2
 70
     0
 43
0.0
 10
2638.073681767528
 20
1301.455080276855
 10
2638.073681767528
 20
1359.455080276855
  0
LWPOLYLINE
  5
2650
330
1F
100
AcDbEntity
  8
0
100
AcDbPolyline
 90
        2
 70
     0
 43
0.0
 10
2634.073681767528
 20
1301.455080276855
 10
2634.073681767528
 20
1359.455080276855
  0
LWPOLYLINE
  5
2651
330
1F
100
AcDbEntity
  8
0
100
AcDbPolyline
 90
        2
 70
     0
 43
0.0
 10
2632.07368176753
 20
1332.955080276855
 10
2632.073681767528
 20
1361.955080276855
  0
LWPOLYLINE
  5
2652
330
1F
100
AcDbEntity
  8
0
100
AcDbPolyline
 90
        2
 70
     0
 43
0.0
 10
2632.07368176753
 20
1298.955080276855
 10
2632.07368176753
 20
1327.955080276855
  0
LWPOLYLINE
  5
2657
330
1F
100
AcDbEntity
  8
0
100
AcDbPolyline
 90
        2
 70
     0
 43
0.0
 10
2630.073681767528
 20
1301.455080276855
 10
2630.073681767528
 20
1359.455080276855
  0
LWPOLYLINE
  5
2658
330
1F
100
AcDbEntity
  8
0
100
AcDbPolyline
 90
        4
 70
     1
 43
0.0
 10
2629.073681767529
 20
1358.955080276855
 10
2629.073681767529
 20
1355.955080276855
 10
2626.073681767528
 20
1355.955080276854
 10
2626.073681767528
 20
1358.955080276854
  0
LWPOLYLINE
  5
265C
330
1F
100
AcDbEntity
  8
0
100
AcDbPolyline
 90
        4
 70
     1
 43
0.0
 10
2629.073681767529
 20
1304.955080276855
 10
2626.073681767528
 20
1304.955080276855
 10
2626.073681767528
 20
1301.955080276855
 10
2629.073681767529
 20
1301.955080276855
  0
LWPOLYLINE
  5
2662
330
1F
100
AcDbEntity
  8
0
100
AcDbPolyline
 90
        2
 70
     0
 43
0.0
 10
2623.073681767529
 20
1301.455080276855
 10
2623.073681767529
 20
1359.455080276855
  0
LWPOLYLINE
  5
2663
330
1F
100
AcDbEntity
  8
0
100
AcDbPolyline
 90
        2
 70
     0
 43
0.0
 10
2621.073681767529
 20
1332.955080276855
 10
2621.073681767529
 20
1361.955080276855
  0
LWPOLYLINE
  5
2664
330
1F
100
AcDbEntity
  8
0
100
AcDbPolyline
 90
        2
 70
     0
 43
0.0
 10
2621.073681767529
 20
1298.955080276855
 10
2621.073681767529
 20
1327.955080276855
  0
LWPOLYLINE
  5
2665
330
1F
100
AcDbEntity
  8
0
100
AcDbPolyline
 90
        2
 70
     0
 43
0.0
 10
2619.07368176753
 20
1301.455080276855
 10
2619.07368176753
 20
1359.455080276855
  0
LWPOLYLINE
  5
2666
330
1F
100
AcDbEntity
  8
0
100
AcDbPolyline
 90
        2
 70
     0
 43
0.0
 10
2617.073681767529
 20
1332.955080276855
 10
2617.073681767529
 20
1361.955080276855
  0
LWPOLYLINE
  5
2667
330
1F
100
AcDbEntity
  8
0
100
AcDbPolyline
 90
        2
 70
     0
 43
0.0
 10
2617.073681767529
 20
1298.955080276855
 10
2617.073681767529
 20
1327.955080276855
  0
LWPOLYLINE
  5
2669
330
1F
100
AcDbEntity
  8
0
100
AcDbPolyline
 90
        2
 70
     0
 43
0.0
 10
2625.073681767529
 20
1332.955080276855
 10
2625.073681767529
 20
1361.955080276855
  0
LWPOLYLINE
  5
266A
330
1F
100
AcDbEntity
  8
0
100
AcDbPolyline
 90
        2
 70
     0
 43
0.0
 10
2625.073681767529
 20
1298.955080276855
 10
2625.073681767529
 20
1327.955080276855
  0
LWPOLYLINE
  5
266C
330
1F
100
AcDbEntity
  8
0
100
AcDbPolyline
 90
        2
 70
     0
 43
0.0
 10
2615.07368176753
 20
1301.455080276855
 10
2615.07368176753
 20
1359.455080276855
  0
LWPOLYLINE
  5
266D
330
1F
100
AcDbEntity
  8
0
100
AcDbPolyline
 90
        2
 70
     0
 43
0.0
 10
2518.073681767535
 20
1332.955080276855
 10
2518.073681767535
 20
1361.955080276855
  0
LWPOLYLINE
  5
266E
330
1F
100
AcDbEntity
  8
0
100
AcDbPolyline
 90
        2
 70
     0
 43
0.0
 10
2518.073681767535
 20
1298.955080276855
 10
2518.073681767535
 20
1327.955080276855
  0
LWPOLYLINE
  5
266F
330
1F
100
AcDbEntity
  8
0
100
AcDbPolyline
 90
        2
 70
     0
 43
0.0
 10
2551.073681767534
 20
1301.455080276855
 10
2551.073681767534
 20
1359.455080276855
  0
LWPOLYLINE
  5
26A0
330
1F
100
AcDbEntity
  8
0
100
AcDbPolyline
 90
        2
 70
     0
 43
0.0
 10
2520.073681767533
 20
1301.455080276855
 10
2520.073681767533
 20
1359.455080276855
  0
LWPOLYLINE
  5
26A1
330
1F
100
AcDbEntity
  8
0
100
AcDbPolyline
 90
        6
 70
     0
 43
0.0
 10
2549.073681767531
 20
1332.955080276855
 10
2549.073681767531
 20
1361.955080276855
 10
2537.073681767533
 20
1361.955080276855
 10
2532.073681767534
 20
1361.955080276855
 10
2522.073681767534
 20
1361.955080276855
 10
2522.073681767534
 20
1332.955080276855
  0
LWPOLYLINE
  5
26A2
330
1F
100
AcDbEntity
  8
0
100
AcDbPolyline
 90
        6
 70
     0
 43
0.0
 10
2522.073681767535
 20
1327.955080276855
 10
2522.073681767534
 20
1298.955080276855
 10
2532.073681767534
 20
1298.955080276855
 10
2537.073681767533
 20
1298.955080276855
 10
2549.073681767531
 20
1298.955080276855
 10
2549.073681767531
 20
1327.955080276855
  0
LWPOLYLINE
  5
26A3
330
1F
100
AcDbEntity
  8
0
100
AcDbPolyline
 90
        4
 70
     1
 43
0.0
 10
2503.073681767535
 20
1358.955080276855
 10
2508.073681767533
 20
1358.955080276855
 10
2508.073681767533
 20
1355.955080276855
 10
2503.073681767535
 20
1355.955080276855
  0
LWPOLYLINE
  5
26A6
330
1F
100
AcDbEntity
  8
0
100
AcDbPolyline
 90
        4
 70
     1
 43
0.0
 10
2493.073681767534
 20
1358.955080276855
 10
2493.073681767534
 20
1355.955080276855
 10
2498.073681767535
 20
1355.955080276855
 10
2498.073681767535
 20
1358.955080276855
  0
LWPOLYLINE
  5
26AB
330
1F
100
AcDbEntity
  8
0
100
AcDbPolyline
 90
        4
 70
     1
 43
0.0
 10
2503.073681767535
 20
1301.955080276855
 10
2508.073681767533
 20
1301.955080276855
 10
2508.073681767533
 20
1304.955080276855
 10
2503.073681767535
 20
1304.955080276855
  0
LWPOLYLINE
  5
26AE
330
1F
100
AcDbEntity
  8
0
100
AcDbPolyline
 90
        4
 70
     1
 43
0.0
 10
2493.073681767534
 20
1301.955080276855
 10
2493.073681767534
 20
1304.955080276855
 10
2498.073681767535
 20
1304.955080276855
 10
2498.073681767535
 20
1301.955080276855
  0
LWPOLYLINE
  5
26B3
330
1F
100
AcDbEntity
  8
0
100
AcDbPolyline
 90
        6
 70
     0
 43
0.0
 10
2526.073681767535
 20
1327.955080276855
 10
2526.073681767535
 20
1298.955080276855
 10
2488.073681767533
 20
1298.955080276855
 10
2488.073681767533
 20
1361.955080276855
 10
2526.073681767535
 20
1361.955080276855
 10
2526.073681767535
 20
1332.955080276855
  0
LWPOLYLINE
  5
26B6
330
1F
100
AcDbEntity
  8
0
100
AcDbPolyline
 90
        2
 70
     0
 43
0.0
 10
2524.073681767533
 20
1301.455080276855
 10
2524.073681767533
 20
1359.455080276855
  0
LWPOLYLINE
  5
26B9
330
1F
100
AcDbEntity
  8
0
100
AcDbPolyline
 90
        2
 70
     0
 43
0.0
 10
2528.073681767533
 20
1301.455080276855
 10
2528.073681767533
 20
1359.455080276855
  0
LWPOLYLINE
  5
26BA
330
1F
100
AcDbEntity
  8
0
100
AcDbPolyline
 90
        2
 70
     0
 43
0.0
 10
2530.073681767533
 20
1332.955080276855
 10
2530.073681767535
 20
1361.955080276855
  0
LWPOLYLINE
  5
26BB
330
1F
100
AcDbEntity
  8
0
100
AcDbPolyline
 90
        2
 70
     0
 43
0.0
 10
2530.073681767533
 20
1298.955080276855
 10
2530.073681767533
 20
1327.955080276855
  0
LWPOLYLINE
  5
26C0
330
1F
100
AcDbEntity
  8
0
100
AcDbPolyline
 90
        2
 70
     0
 43
0.0
 10
2532.073681767534
 20
1301.455080276855
 10
2532.073681767534
 20
1359.455080276855
  0
LWPOLYLINE
  5
26C1
330
1F
100
AcDbEntity
  8
0
100
AcDbPolyline
 90
        4
 70
     1
 43
0.0
 10
2533.073681767533
 20
1358.955080276855
 10
2533.073681767533
 20
1355.955080276855
 10
2536.073681767534
 20
1355.955080276854
 10
2536.073681767534
 20
1358.955080276854
  0
LWPOLYLINE
  5
26C5
330
1F
100
AcDbEntity
  8
0
100
AcDbPolyline
 90
        4
 70
     1
 43
0.0
 10
2533.073681767533
 20
1304.955080276855
 10
2536.073681767534
 20
1304.955080276855
 10
2536.073681767534
 20
1301.955080276855
 10
2533.073681767533
 20
1301.955080276855
  0
LWPOLYLINE
  5
26CB
330
1F
100
AcDbEntity
  8
0
100
AcDbPolyline
 90
        2
 70
     0
 43
0.0
 10
2539.073681767533
 20
1301.455080276855
 10
2539.073681767533
 20
1359.455080276855
  0
LWPOLYLINE
  5
26CC
330
1F
100
AcDbEntity
  8
0
100
AcDbPolyline
 90
        2
 70
     0
 43
0.0
 10
2541.073681767533
 20
1332.955080276855
 10
2541.073681767533
 20
1361.955080276855
  0
LWPOLYLINE
  5
26CD
330
1F
100
AcDbEntity
  8
0
100
AcDbPolyline
 90
        2
 70
     0
 43
0.0
 10
2541.073681767533
 20
1298.955080276855
 10
2541.073681767533
 20
1327.955080276855
  0
LWPOLYLINE
  5
26CE
330
1F
100
AcDbEntity
  8
0
100
AcDbPolyline
 90
        2
 70
     0
 43
0.0
 10
2543.073681767534
 20
1301.455080276855
 10
2543.073681767534
 20
1359.455080276855
  0
LWPOLYLINE
  5
26CF
330
1F
100
AcDbEntity
  8
0
100
AcDbPolyline
 90
        2
 70
     0
 43
0.0
 10
2545.073681767533
 20
1332.955080276855
 10
2545.073681767533
 20
1361.955080276855
  0
LWPOLYLINE
  5
26D0
330
1F
100
AcDbEntity
  8
0
100
AcDbPolyline
 90
        2
 70
     0
 43
0.0
 10
2545.073681767533
 20
1298.955080276855
 10
2545.073681767533
 20
1327.955080276855
  0
LWPOLYLINE
  5
26D2
330
1F
100
AcDbEntity
  8
0
100
AcDbPolyline
 90
        2
 70
     0
 43
0.0
 10
2537.073681767533
 20
1332.955080276855
 10
2537.073681767533
 20
1361.955080276855
  0
LWPOLYLINE
  5
26D3
330
1F
100
AcDbEntity
  8
0
100
AcDbPolyline
 90
        2
 70
     0
 43
0.0
 10
2537.073681767533
 20
1298.955080276855
 10
2537.073681767533
 20
1327.955080276855
  0
LWPOLYLINE
  5
26D5
330
1F
100
AcDbEntity
  8
0
100
AcDbPolyline
 90
        2
 70
     0
 43
0.0
 10
2547.073681767534
 20
1301.455080276855
 10
2547.073681767534
 20
1359.455080276855
  0
LWPOLYLINE
  5
26DD
330
1F
100
AcDbEntity
  8
0
100
AcDbPolyline
 90
        4
 70
     1
 43
0.0
 10
2601.073681767531
 20
1358.955080276855
 10
2601.073681767529
 20
1355.955080276855
 10
2591.073681767531
 20
1355.955080276855
 10
2591.073681767531
 20
1358.955080276855
  0
LWPOLYLINE
  5
26DE
330
1F
100
AcDbEntity
  8
0
100
AcDbPolyline
 90
        4
 70
     1
 43
0.0
 10
2571.073681767531
 20
1355.955080276855
 10
2561.073681767531
 20
1355.955080276855
 10
2561.073681767531
 20
1358.955080276855
 10
2571.073681767531
 20
1358.955080276855
  0
LWPOLYLINE
  5
26E5
330
1F
100
AcDbEntity
  8
0
100
AcDbPolyline
 90
        2
 70
     0
 43
0.0
 10
2549.073681767531
 20
1298.955080276855
 10
2613.073681767533
 20
1298.955080276855
  0
LWPOLYLINE
  5
26E6
330
1F
100
AcDbEntity
  8
0
100
AcDbPolyline
 90
        4
 70
     1
 43
0.0
 10
2601.073681767531
 20
1301.955080276855
 10
2601.073681767529
 20
1304.955080276855
 10
2591.073681767531
 20
1304.955080276855
 10
2591.073681767531
 20
1301.955080276855
  0
LWPOLYLINE
  5
26E7
330
1F
100
AcDbEntity
  8
0
100
AcDbPolyline
 90
        4
 70
     1
 43
0.0
 10
2571.073681767531
 20
1304.955080276855
 10
2561.073681767531
 20
1304.955080276855
 10
2561.073681767531
 20
1301.955080276855
 10
2571.073681767531
 20
1301.955080276855
  0
LWPOLYLINE
  5
270C
330
1F
100
AcDbEntity
  8
0
100
AcDbPolyline
 90
        4
 70
     1
 43
0.0
 10
2568.073681767534
 20
1312.455080276855
 10
2556.073681767533
 20
1312.455080276855
 10
2556.073681767533
 20
1330.755080276855
 10
2568.073681767534
 20
1330.755080276855
  0
LWPOLYLINE
  5
2719
330
1F
100
AcDbEntity
  8
0
100
AcDbPolyline
 90
        2
 70
     0
 43
0.0
 10
2549.073681767531
 20
1361.955080276855
 10
2613.073681767532
 20
1361.955080276855
  0
LWPOLYLINE
  5
2757
330
1F
100
AcDbEntity
  8
0
100
AcDbPolyline
 90
       20
 70
     1
 43
0.0
 10
2534.903077192488
 20
1078.039044460359
 10
2534.903077192488
 20
1084.03904446036
 10
2559.903077192488
 20
1084.03904446036
 10
2559.903077192488
 20
1109.03904446036
 10
2556.903077192488
 20
1109.03904446036
 10
2556.903077192488
 20
1119.03904446036
 10
2559.903077192488
 20
1119.03904446036
 10
2559.903077192488
 20
1144.039044460359
 10
2534.903077192488
 20
1144.039044460359
 10
2534.903077192488
 20
1147.03904446036
 10
2524.903077192487
 20
1147.03904446036
 10
2524.903077192487
 20
1144.039044460359
 10
2499.903077192489
 20
1144.039044460359
 10
2499.903077192489
 20
1119.03904446036
 10
2502.903077192488
 20
1119.03904446036
 10
2502.903077192488
 20
1109.03904446036
 10
2499.903077192489
 20
1109.03904446036
 10
2499.903077192489
 20
1084.03904446036
 10
2524.903077192487
 20
1084.03904446036
 10
2524.903077192487
 20
1078.03904446036
  0
LWPOLYLINE
  5
2758
330
1F
100
AcDbEntity
  8
0
100
AcDbPolyline
 90
        4
 70
     1
 43
0.0
 10
2534.903077192488
 20
1085.039044460359
 10
2524.903077192487
 20
1085.039044460359
 10
2524.903077192487
 20
1088.039044460359
 10
2534.903077192488
 20
1088.039044460359
  0
LWPOLYLINE
  5
2759
330
1F
100
AcDbEntity
  8
0
100
AcDbPolyline
 90
        2
 70
     0
 43
0.0
 10
2543.70569196853
 20
1089.03904446036
 10
2538.495036582887
 20
1089.03904446036
  0
LWPOLYLINE
  5
275A
330
1F
100
AcDbEntity
  8
0
100
AcDbPolyline
 90
        2
 70
     0
 43
0.0
 10
2532.811247019273
 20
1089.03904446036
 10
2528.823213778073
 20
1089.03904446036
  0
LWPOLYLINE
  5
275B
330
1F
100
AcDbEntity
  8
0
100
AcDbPolyline
 90
        2
 70
     0
 43
0.0
 10
2524.365179791185
 20
1089.039044460359
 10
2521.556543693103
 20
1089.039044460359
  0
LWPOLYLINE
  5
275C
330
1F
100
AcDbEntity
  8
0
100
AcDbPolyline
 90
        2
 70
     0
 43
0.0
 10
2516.387525093424
 20
1089.039044460359
 10
2504.903078425539
 20
1089.039044460359
  0
LWPOLYLINE
  5
27BC
330
1F
100
AcDbEntity
  8
0
100
AcDbPolyline
 90
       20
 70
     1
 43
0.0
 10
2588.554852925748
 20
1078.039044460359
 10
2588.554852925748
 20
1084.03904446036
 10
2563.554852925748
 20
1084.03904446036
 10
2563.554852925748
 20
1109.03904446036
 10
2566.554852925747
 20
1109.03904446036
 10
2566.554852925747
 20
1119.03904446036
 10
2563.554852925748
 20
1119.03904446036
 10
2563.554852925748
 20
1144.039044460359
 10
2588.554852925748
 20
1144.039044460359
 10
2588.554852925748
 20
1147.03904446036
 10
2598.554852925747
 20
1147.03904446036
 10
2598.554852925747
 20
1144.039044460359
 10
2623.554852925747
 20
1144.039044460359
 10
2623.554852925747
 20
1119.03904446036
 10
2620.554852925747
 20
1119.03904446036
 10
2620.554852925747
 20
1109.03904446036
 10
2623.554852925747
 20
1109.03904446036
 10
2623.554852925747
 20
1084.03904446036
 10
2598.554852925747
 20
1084.03904446036
 10
2598.554852925747
 20
1078.03904446036
  0
LWPOLYLINE
  5
27BD
330
1F
100
AcDbEntity
  8
0
100
AcDbPolyline
 90
       20
 70
     1
 43
0.0
 10
2660.133078845258
 20
1078.039044460358
 10
2660.133078845255
 20
1084.039044460359
 10
2682.133078845257
 20
1084.039044460359
 10
2682.133078845257
 20
1109.039044460359
 10
2685.133078845255
 20
1109.039044460359
 10
2685.133078845255
 20
1119.039044460359
 10
2682.133078845257
 20
1119.039044460359
 10
2682.133078845257
 20
1144.039044460358
 10
2660.133078845255
 20
1144.039044460358
 10
2660.133078845255
 20
1147.039044460358
 10
2650.133078845257
 20
1147.039044460358
 10
2650.133078845257
 20
1144.039044460358
 10
2628.133078845255
 20
1144.039044460358
 10
2628.133078845255
 20
1119.039044460359
 10
2625.133078845257
 20
1119.039044460359
 10
2625.133078845256
 20
1109.039044460359
 10
2628.133078845258
 20
1109.039044460359
 10
2628.133078845255
 20
1084.039044460359
 10
2650.133078845257
 20
1084.039044460359
 10
2650.133078845257
 20
1078.039044460359
  0
LWPOLYLINE
  5
27BE
330
1F
100
AcDbEntity
  8
0
100
AcDbPolyline
 90
        4
 70
     1
 43
0.0
 10
2598.554852925747
 20
1085.039044460359
 10
2588.554852925748
 20
1085.039044460359
 10
2588.554852925748
 20
1088.039044460359
 10
2598.554852925747
 20
1088.039044460359
  0
LWPOLYLINE
  5
27BF
330
1F
100
AcDbEntity
  8
0
100
AcDbPolyline
 90
        4
 70
     1
 43
0.0
 10
2660.133078845255
 20
1085.039044460358
 10
2650.133078845257
 20
1085.039044460358
 10
2650.133078845257
 20
1088.039044460358
 10
2660.133078845255
 20
1088.039044460358
  0
LWPOLYLINE
  5
2818
330
1F
100
AcDbEntity
  8
0
100
AcDbPolyline
 90
       20
 70
     1
 43
0.0
 10
2721.689461358437
 20
1078.039044460358
 10
2721.689461358437
 20
1084.039044460359
 10
2743.689461358436
 20
1084.039044460359
 10
2743.689461358436
 20
1109.039044460359
 10
2746.689461358436
 20
1109.039044460359
 10
2746.689461358437
 20
1119.039044460359
 10
2743.689461358436
 20
1119.039044460359
 10
2743.689461358436
 20
1144.039044460358
 10
2721.689461358437
 20
1144.039044460358
 10
2721.689461358437
 20
1147.039044460358
 10
2711.689461358436
 20
1147.039044460358
 10
2711.689461358436
 20
1144.039044460358
 10
2689.689461358437
 20
1144.039044460358
 10
2689.689461358437
 20
1119.039044460359
 10
2686.689461358437
 20
1119.039044460359
 10
2686.689461358435
 20
1109.039044460359
 10
2689.689461358437
 20
1109.039044460359
 10
2689.689461358437
 20
1084.039044460359
 10
2711.689461358436
 20
1084.039044460359
 10
2711.689461358436
 20
1078.039044460359
  0
LWPOLYLINE
  5
2819
330
1F
100
AcDbEntity
  8
0
100
AcDbPolyline
 90
        4
 70
     1
 43
0.0
 10
2721.689461358437
 20
1085.039044460358
 10
2711.689461358436
 20
1085.039044460358
 10
2711.689461358436
 20
1088.039044460358
 10
2721.689461358437
 20
1088.039044460358
  0
LWPOLYLINE
  5
2846
330
1F
100
AcDbEntity
  8
0
100
AcDbPolyline
 90
        4
 70
     1
 43
0.0
 10
2554.903077192487
 20
1089.039044460359
 10
2504.903077192488
 20
1089.039044460359
 10
2504.903077192488
 20
1140.039044460359
 10
2554.903077192487
 20
1140.039044460359
  0
LWPOLYLINE
  5
2850
330
1F
100
AcDbEntity
  8
0
100
AcDbPolyline
 90
        4
 70
     1
 43
0.0
 10
2618.554852925746
 20
1089.039044460359
 10
2568.554852925748
 20
1089.039044460359
 10
2568.554852925748
 20
1140.039044460359
 10
2618.554852925747
 20
1140.039044460359
  0
LWPOLYLINE
  5
2851
330
1F
100
AcDbEntity
  8
0
100
AcDbPolyline
 90
        4
 70
     1
 43
0.0
 10
2680.133078845255
 20
1089.039044460357
 10
2630.133078845256
 20
1089.039044460357
 10
2630.133078845256
 20
1140.039044460357
 10
2680.133078845255
 20
1140.039044460357
  0
LWPOLYLINE
  5
2852
330
1F
100
AcDbEntity
  8
0
100
AcDbPolyline
 90
        4
 70
     1
 43
0.0
 10
2741.689461358435
 20
1089.039044460357
 10
2691.689461358437
 20
1089.039044460357
 10
2691.689461358437
 20
1140.039044460357
 10
2741.689461358435
 20
1140.039044460357
  0
LWPOLYLINE
  5
2854
330
1F
100
AcDbEntity
  8
0
100
AcDbPolyline
 90
       20
 70
     1
 43
0.0
 10
2782.735803432581
 20
1144.039044460358
 10
2807.735803432581
 20
1144.039044460358
 10
2807.735803432581
 20
1119.039044460359
 10
2804.735803432581
 20
1119.039044460359
 10
2804.735803432581
 20
1109.039044460359
 10
2807.735803432581
 20
1109.039044460359
 10
2807.735803432581
 20
1084.039044460359
 10
2782.735803432581
 20
1084.039044460359
 10
2782.735803432581
 20
1087.039044460358
 10
2772.735803432582
 20
1087.039044460358
 10
2772.735803432582
 20
1084.039044460359
 10
2747.735803432581
 20
1084.039044460359
 10
2747.735803432581
 20
1109.039044460359
 10
2750.735803432581
 20
1109.039044460359
 10
2750.735803432581
 20
1119.039044460359
 10
2747.735803432581
 20
1119.039044460359
 10
2747.735803432581
 20
1144.039044460358
 10
2772.735803432582
 20
1144.039044460358
 10
2772.735803432582
 20
1141.039044460358
 10
2782.735803432581
 20
1141.039044460358
  0
LWPOLYLINE
  5
2885
330
1F
100
AcDbEntity
  8
0
100
AcDbPolyline
 90
        4
 70
     1
 43
0.0
 10
2461.407442422353
 20
1459.932498696044
 10
2947.561911605857
 20
1459.932498696044
 10
2947.561911605857
 20
1270.407001232688
 10
2461.407442422353
 20
1270.407001232688
  0
LWPOLYLINE
  5
28B6
330
1F
100
AcDbEntity
  8
0
100
AcDbPolyline
 90
        4
 70
     1
 43
0.0
 10
2802.735803432581
 20
1088.539044460357
 10
2752.735803432582
 20
1088.539044460357
 10
2752.735803432582
 20
1139.539044460357
 10
2802.735803432581
 20
1139.539044460357
  0
LWPOLYLINE
  5
2917
330
1F
100
AcDbEntity
  8
0
100
AcDbPolyline
 90
       14
 70
     1
 43
0.0
 10
2607.991762918242
 20
1025.280474898303
 10
2607.991762918242
 20
1059.280474898304
 10
2610.991762918242
 20
1059.280474898304
 10
2610.991762918242
 20
1069.280474898304
 10
2607.991762918242
 20
1069.280474898304
 10
2607.991762918242
 20
1072.280474898302
 10
2587.991762918242
 20
1072.280474898302
 10
2587.991762918242
 20
1062.280474898305
 42
-0.5000000000000137
 10
2587.991762918242
 20
1022.280474898304
 10
2587.991762918242
 20
1012.280474898304
 10
2607.991762918242
 20
1012.280474898304
 10
2607.991762918242
 20
1015.280474898304
 10
2610.991762918242
 20
1015.280474898304
 10
2610.991762918242
 20
1025.280474898303
  0
LWPOLYLINE
  5
2918
330
1F
100
AcDbEntity
  8
0
100
AcDbPolyline
 90
       14
 70
     1
 43
0.0
 10
2634.854563725296
 20
1025.280474898303
 10
2634.854563725296
 20
1059.280474898304
 10
2637.854563725297
 20
1059.280474898304
 10
2637.854563725297
 20
1069.280474898304
 10
2634.854563725296
 20
1069.280474898304
 10
2634.854563725296
 20
1072.280474898302
 10
2614.854563725297
 20
1072.280474898302
 10
2614.854563725297
 20
1062.280474898305
 42
-0.5000000000000137
 10
2614.854563725297
 20
1022.280474898304
 10
2614.854563725297
 20
1012.280474898304
 10
2634.854563725296
 20
1012.280474898304
 10
2634.854563725296
 20
1015.280474898304
 10
2637.854563725297
 20
1015.280474898304
 10
2637.854563725297
 20
1025.280474898303
  0
LWPOLYLINE
  5
2919
330
1F
100
AcDbEntity
  8
0
100
AcDbPolyline
 90
        4
 70
     1
 43
0.0
 10
2822.532874369763
 20
1141.039044460358
 10
2822.532874369764
 20
1138.039044460358
 10
2812.532874369762
 20
1138.039044460358
 10
2812.532874369762
 20
1141.039044460358
  0
LWPOLYLINE
  5
291A
330
1F
100
AcDbEntity
  8
0
100
AcDbPolyline
 90
        4
 70
     1
 43
0.0
 10
2856.532874369762
 20
1141.039044460358
 10
2856.532874369762
 20
1138.039044460358
 10
2866.532874369763
 20
1138.039044460358
 10
2866.532874369763
 20
1141.039044460359
  0
LWPOLYLINE
  5
291B
330
1F
100
AcDbEntity
  8
0
100
AcDbPolyline
 90
        4
 70
     1
 43
0.0
 10
2822.532874369763
 20
1087.039044460358
 10
2822.532874369764
 20
1090.039044460358
 10
2812.532874369762
 20
1090.039044460358
 10
2812.532874369762
 20
1087.039044460358
  0
LWPOLYLINE
  5
291C
330
1F
100
AcDbEntity
  8
0
100
AcDbPolyline
 90
        4
 70
     1
 43
0.0
 10
2856.532874369762
 20
1087.039044460358
 10
2856.532874369762
 20
1090.039044460358
 10
2866.532874369763
 20
1090.039044460358
 10
2866.532874369763
 20
1087.039044460358
  0
LWPOLYLINE
  5
291D
330
1F
100
AcDbEntity
  8
0
100
AcDbPolyline
 90
       20
 70
     1
 43
0.0
 10
2844.532874369761
 20
1144.039044460358
 10
2869.532874369762
 20
1144.039044460358
 10
2869.532874369762
 20
1119.039044460359
 10
2866.532874369762
 20
1119.039044460359
 10
2866.532874369762
 20
1109.039044460359
 10
2869.532874369762
 20
1109.039044460359
 10
2869.532874369762
 20
1084.039044460359
 10
2844.532874369761
 20
1084.039044460359
 10
2844.532874369761
 20
1087.039044460358
 10
2834.532874369762
 20
1087.039044460358
 10
2834.532874369762
 20
1084.039044460359
 10
2809.532874369761
 20
1084.039044460359
 10
2809.532874369761
 20
1109.039044460359
 10
2812.532874369761
 20
1109.039044460359
 10
2812.532874369761
 20
1119.039044460359
 10
2809.532874369761
 20
1119.039044460359
 10
2809.532874369761
 20
1144.039044460358
 10
2834.532874369762
 20
1144.039044460358
 10
2834.532874369762
 20
1141.039044460358
 10
2844.532874369761
 20
1141.039044460358
  0
LWPOLYLINE
  5
291E
330
1F
100
AcDbEntity
  8
0
100
AcDbPolyline
 90
        4
 70
     1
 43
0.0
 10
2827.082874369763
 20
1126.489044460358
 10
2827.082874369763
 20
1101.564044460358
 10
2851.982874369762
 20
1101.564044460359
 10
2851.982874369762
 20
1126.489044460358
  0
LWPOLYLINE
  5
291F
330
1F
100
AcDbEntity
  8
0
100
AcDbPolyline
 90
        4
 70
     1
 43
0.0
 10
2845.364023768885
 20
1061.137634229336
 10
2845.364023768885
 20
1036.212634229336
 10
2870.264023768883
 20
1036.212634229336
 10
2870.264023768884
 20
1061.137634229335
  0
LWPOLYLINE
  5
2920
330
1F
100
AcDbEntity
  8
0
100
AcDbPolyline
 90
       20
 70
     1
 43
0.0
 10
2830.814023768887
 20
1053.212634229336
 10
2827.814023768886
 20
1053.212634229336
 10
2827.814023768886
 20
1043.212634229336
 10
2830.814023768887
 20
1043.212634229335
 10
2830.814023768887
 20
1021.212634229335
 10
2852.814023768886
 20
1021.212634229335
 10
2852.814023768886
 20
1018.212634229335
 10
2862.814023768887
 20
1018.212634229335
 10
2862.814023768887
 20
1021.212634229335
 10
2884.814023768885
 20
1021.212634229335
 10
2884.814023768883
 20
1043.212634229336
 10
2887.814023768883
 20
1043.212634229336
 10
2887.814023768883
 20
1053.212634229336
 10
2884.814023768883
 20
1053.212634229336
 10
2884.814023768883
 20
1075.212634229335
 10
2862.814023768887
 20
1075.212634229336
 10
2862.814023768887
 20
1078.212634229336
 10
2852.814023768886
 20
1078.212634229336
 10
2852.814023768886
 20
1075.212634229336
 10
2830.814023768887
 20
1075.212634229335
  0
LWPOLYLINE
  5
2921
330
1F
100
AcDbEntity
  8
0
100
AcDbPolyline
 90
        2
 70
     0
 43
0.0
 10
2700.543854354584
 20
1075.212634229335
 10
2764.543854354585
 20
1075.212634229335
  0
LWPOLYLINE
  5
2922
330
1F
100
AcDbEntity
  8
0
100
AcDbPolyline
 90
        4
 70
     1
 43
0.0
 10
2719.543854354586
 20
1025.712634229335
 10
2707.543854354585
 20
1025.712634229335
 10
2707.543854354585
 20
1044.012634229335
 10
2719.543854354586
 20
1044.012634229335
  0
LWPOLYLINE
  5
2923
330
1F
100
AcDbEntity
  8
0
100
AcDbPolyline
 90
        4
 70
     1
 43
0.0
 10
2722.543854354583
 20
1018.212634229335
 10
2712.543854354585
 20
1018.212634229335
 10
2712.543854354585
 20
1015.212634229335
 10
2722.543854354583
 20
1015.212634229335
  0
LWPOLYLINE
  5
2924
330
1F
100
AcDbEntity
  8
0
100
AcDbPolyline
 90
        4
 70
     1
 43
0.0
 10
2752.543854354584
 20
1015.212634229335
 10
2752.543854354581
 20
1018.212634229335
 10
2742.543854354583
 20
1018.212634229335
 10
2742.543854354583
 20
1015.212634229335
  0
LWPOLYLINE
  5
2925
330
1F
100
AcDbEntity
  8
0
100
AcDbPolyline
 90
        2
 70
     0
 43
0.0
 10
2700.543854354584
 20
1012.212634229335
 10
2764.543854354585
 20
1012.212634229335
  0
LWPOLYLINE
  5
2926
330
1F
100
AcDbEntity
  8
0
100
AcDbPolyline
 90
        4
 70
     1
 43
0.0
 10
2722.543854354583
 20
1069.212634229335
 10
2712.543854354585
 20
1069.212634229335
 10
2712.543854354585
 20
1072.212634229335
 10
2722.543854354583
 20
1072.212634229335
  0
LWPOLYLINE
  5
2927
330
1F
100
AcDbEntity
  8
0
100
AcDbPolyline
 90
        4
 70
     1
 43
0.0
 10
2752.543854354584
 20
1072.212634229335
 10
2752.543854354581
 20
1069.212634229335
 10
2742.543854354583
 20
1069.212634229335
 10
2742.543854354583
 20
1072.212634229335
  0
LWPOLYLINE
  5
2928
330
1F
100
AcDbEntity
  8
0
100
AcDbPolyline
 90
        2
 70
     0
 43
0.0
 10
2698.543854354586
 20
1014.712634229335
 10
2698.543854354586
 20
1072.712634229335
  0
LWPOLYLINE
  5
2929
330
1F
100
AcDbEntity
  8
0
100
AcDbPolyline
 90
        2
 70
     0
 43
0.0
 10
2688.543854354585
 20
1012.212634229335
 10
2688.543854354585
 20
1041.212634229335
  0
LWPOLYLINE
  5
292A
330
1F
100
AcDbEntity
  8
0
100
AcDbPolyline
 90
        2
 70
     0
 43
0.0
 10
2688.543854354585
 20
1046.212634229335
 10
2688.543854354585
 20
1075.212634229335
  0
LWPOLYLINE
  5
292B
330
1F
100
AcDbEntity
  8
0
100
AcDbPolyline
 90
        2
 70
     0
 43
0.0
 10
2696.543854354585
 20
1012.212634229335
 10
2696.543854354585
 20
1041.212634229335
  0
LWPOLYLINE
  5
292C
330
1F
100
AcDbEntity
  8
0
100
AcDbPolyline
 90
        2
 70
     0
 43
0.0
 10
2696.543854354585
 20
1046.212634229335
 10
2696.543854354585
 20
1075.212634229335
  0
LWPOLYLINE
  5
292D
330
1F
100
AcDbEntity
  8
0
100
AcDbPolyline
 90
        2
 70
     0
 43
0.0
 10
2694.543854354586
 20
1014.712634229335
 10
2694.543854354586
 20
1072.712634229335
  0
LWPOLYLINE
  5
292E
330
1F
100
AcDbEntity
  8
0
100
AcDbPolyline
 90
        2
 70
     0
 43
0.0
 10
2692.543854354585
 20
1012.212634229335
 10
2692.543854354585
 20
1041.212634229335
  0
LWPOLYLINE
  5
292F
330
1F
100
AcDbEntity
  8
0
100
AcDbPolyline
 90
        2
 70
     0
 43
0.0
 10
2692.543854354585
 20
1046.212634229335
 10
2692.543854354585
 20
1075.212634229335
  0
LWPOLYLINE
  5
2930
330
1F
100
AcDbEntity
  8
0
100
AcDbPolyline
 90
        2
 70
     0
 43
0.0
 10
2690.543854354585
 20
1014.712634229335
 10
2690.543854354585
 20
1072.712634229335
  0
LWPOLYLINE
  5
2931
330
1F
100
AcDbEntity
  8
0
100
AcDbPolyline
 90
        4
 70
     1
 43
0.0
 10
2684.543854354585
 20
1018.212634229335
 10
2687.543854354586
 20
1018.212634229335
 10
2687.543854354586
 20
1015.212634229335
 10
2684.543854354585
 20
1015.212634229335
  0
LWPOLYLINE
  5
2932
330
1F
100
AcDbEntity
  8
0
100
AcDbPolyline
 90
        4
 70
     1
 43
0.0
 10
2684.543854354585
 20
1072.212634229335
 10
2684.543854354585
 20
1069.212634229335
 10
2687.543854354586
 20
1069.212634229334
 10
2687.543854354586
 20
1072.212634229334
  0
LWPOLYLINE
  5
2933
330
1F
100
AcDbEntity
  8
0
100
AcDbPolyline
 90
        2
 70
     0
 43
0.0
 10
2683.543854354586
 20
1014.712634229335
 10
2683.543854354586
 20
1072.712634229335
  0
LWPOLYLINE
  5
2934
330
1F
100
AcDbEntity
  8
0
100
AcDbPolyline
 90
        2
 70
     0
 43
0.0
 10
2681.543854354585
 20
1012.212634229335
 10
2681.543854354585
 20
1041.212634229335
  0
LWPOLYLINE
  5
2935
330
1F
100
AcDbEntity
  8
0
100
AcDbPolyline
 90
        2
 70
     0
 43
0.0
 10
2681.543854354585
 20
1046.212634229335
 10
2681.543854354587
 20
1075.212634229335
  0
LWPOLYLINE
  5
2936
330
1F
100
AcDbEntity
  8
0
100
AcDbPolyline
 90
        2
 70
     0
 43
0.0
 10
2679.543854354585
 20
1014.712634229335
 10
2679.543854354585
 20
1072.712634229335
  0
LWPOLYLINE
  5
2937
330
1F
100
AcDbEntity
  8
0
100
AcDbPolyline
 90
        2
 70
     0
 43
0.0
 10
2675.543854354585
 20
1014.712634229335
 10
2675.543854354585
 20
1072.712634229335
  0
LWPOLYLINE
  5
2938
330
1F
100
AcDbEntity
  8
0
100
AcDbPolyline
 90
        6
 70
     0
 43
0.0
 10
2677.543854354587
 20
1041.212634229335
 10
2677.543854354587
 20
1012.212634229335
 10
2639.543854354585
 20
1012.212634229335
 10
2639.543854354585
 20
1075.212634229335
 10
2677.543854354587
 20
1075.212634229335
 10
2677.543854354587
 20
1046.212634229335
  0
LWPOLYLINE
  5
2939
330
1F
100
AcDbEntity
  8
0
100
AcDbPolyline
 90
        4
 70
     1
 43
0.0
 10
2644.543854354586
 20
1015.212634229335
 10
2644.543854354586
 20
1018.212634229335
 10
2649.543854354587
 20
1018.212634229335
 10
2649.543854354587
 20
1015.212634229335
  0
LWPOLYLINE
  5
293A
330
1F
100
AcDbEntity
  8
0
100
AcDbPolyline
 90
        4
 70
     1
 43
0.0
 10
2654.543854354587
 20
1015.212634229335
 10
2659.543854354585
 20
1015.212634229335
 10
2659.543854354585
 20
1018.212634229335
 10
2654.543854354587
 20
1018.212634229335
  0
LWPOLYLINE
  5
293B
330
1F
100
AcDbEntity
  8
0
100
AcDbPolyline
 90
        4
 70
     1
 43
0.0
 10
2644.543854354586
 20
1072.212634229335
 10
2644.543854354586
 20
1069.212634229335
 10
2649.543854354587
 20
1069.212634229335
 10
2649.543854354587
 20
1072.212634229335
  0
LWPOLYLINE
  5
293C
330
1F
100
AcDbEntity
  8
0
100
AcDbPolyline
 90
        4
 70
     1
 43
0.0
 10
2654.543854354587
 20
1072.212634229335
 10
2659.543854354585
 20
1072.212634229335
 10
2659.543854354585
 20
1069.212634229335
 10
2654.543854354587
 20
1069.212634229335
  0
LWPOLYLINE
  5
293D
330
1F
100
AcDbEntity
  8
0
100
AcDbPolyline
 90
        6
 70
     0
 43
0.0
 10
2673.543854354587
 20
1041.212634229335
 10
2673.543854354586
 20
1012.212634229335
 10
2683.543854354586
 20
1012.212634229335
 10
2688.543854354585
 20
1012.212634229335
 10
2700.543854354584
 20
1012.212634229335
 10
2700.543854354584
 20
1041.212634229335
  0
LWPOLYLINE
  5
293E
330
1F
100
AcDbEntity
  8
0
100
AcDbPolyline
 90
        6
 70
     0
 43
0.0
 10
2700.543854354584
 20
1046.212634229335
 10
2700.543854354584
 20
1075.212634229335
 10
2688.543854354585
 20
1075.212634229335
 10
2683.543854354586
 20
1075.212634229335
 10
2673.543854354586
 20
1075.212634229335
 10
2673.543854354586
 20
1046.212634229335
  0
LWPOLYLINE
  5
293F
330
1F
100
AcDbEntity
  8
0
100
AcDbPolyline
 90
        2
 70
     0
 43
0.0
 10
2671.543854354585
 20
1014.712634229335
 10
2671.543854354585
 20
1072.712634229335
  0
LWPOLYLINE
  5
2940
330
1F
100
AcDbEntity
  8
0
100
AcDbPolyline
 90
        2
 70
     0
 43
0.0
 10
2702.543854354586
 20
1014.712634229335
 10
2702.543854354586
 20
1072.712634229335
  0
LWPOLYLINE
  5
2941
330
1F
100
AcDbEntity
  8
0
100
AcDbPolyline
 90
        2
 70
     0
 43
0.0
 10
2669.543854354588
 20
1012.212634229335
 10
2669.543854354588
 20
1041.212634229335
  0
LWPOLYLINE
  5
2942
330
1F
100
AcDbEntity
  8
0
100
AcDbPolyline
 90
        2
 70
     0
 43
0.0
 10
2669.543854354588
 20
1046.212634229335
 10
2669.543854354588
 20
1075.212634229335
  0
LWPOLYLINE
  5
2943
330
1F
100
AcDbEntity
  8
0
100
AcDbPolyline
 90
        2
 70
     0
 43
0.0
 10
2766.543854354583
 20
1014.712634229335
 10
2766.543854354583
 20
1072.712634229335
  0
LWPOLYLINE
  5
2944
330
1F
100
AcDbEntity
  8
0
100
AcDbPolyline
 90
        2
 70
     0
 43
0.0
 10
2776.543854354581
 20
1012.212634229335
 10
2776.543854354581
 20
1041.212634229335
  0
LWPOLYLINE
  5
2945
330
1F
100
AcDbEntity
  8
0
100
AcDbPolyline
 90
        2
 70
     0
 43
0.0
 10
2776.543854354581
 20
1046.212634229335
 10
2776.543854354581
 20
1075.212634229335
  0
LWPOLYLINE
  5
2946
330
1F
100
AcDbEntity
  8
0
100
AcDbPolyline
 90
        2
 70
     0
 43
0.0
 10
2768.543854354581
 20
1012.212634229335
 10
2768.543854354581
 20
1041.212634229335
  0
LWPOLYLINE
  5
2947
330
1F
100
AcDbEntity
  8
0
100
AcDbPolyline
 90
        2
 70
     0
 43
0.0
 10
2768.543854354581
 20
1046.212634229335
 10
2768.543854354581
 20
1075.212634229335
  0
LWPOLYLINE
  5
2948
330
1F
100
AcDbEntity
  8
0
100
AcDbPolyline
 90
        2
 70
     0
 43
0.0
 10
2770.543854354583
 20
1014.712634229335
 10
2770.543854354583
 20
1072.712634229335
  0
LWPOLYLINE
  5
2949
330
1F
100
AcDbEntity
  8
0
100
AcDbPolyline
 90
        2
 70
     0
 43
0.0
 10
2772.543854354581
 20
1012.212634229335
 10
2772.543854354581
 20
1041.212634229335
  0
LWPOLYLINE
  5
294A
330
1F
100
AcDbEntity
  8
0
100
AcDbPolyline
 90
        2
 70
     0
 43
0.0
 10
2772.543854354581
 20
1046.212634229335
 10
2772.543854354581
 20
1075.212634229335
  0
LWPOLYLINE
  5
294B
330
1F
100
AcDbEntity
  8
0
100
AcDbPolyline
 90
        2
 70
     0
 43
0.0
 10
2774.543854354581
 20
1014.712634229335
 10
2774.543854354581
 20
1072.712634229335
  0
LWPOLYLINE
  5
294C
330
1F
100
AcDbEntity
  8
0
100
AcDbPolyline
 90
        4
 70
     1
 43
0.0
 10
2780.543854354581
 20
1018.212634229335
 10
2777.54385435458
 20
1018.212634229335
 10
2777.54385435458
 20
1015.212634229335
 10
2780.543854354581
 20
1015.212634229335
  0
LWPOLYLINE
  5
294D
330
1F
100
AcDbEntity
  8
0
100
AcDbPolyline
 90
        4
 70
     1
 43
0.0
 10
2780.543854354581
 20
1072.212634229335
 10
2780.543854354581
 20
1069.212634229335
 10
2777.54385435458
 20
1069.212634229334
 10
2777.54385435458
 20
1072.212634229334
  0
LWPOLYLINE
  5
294E
330
1F
100
AcDbEntity
  8
0
100
AcDbPolyline
 90
        2
 70
     0
 43
0.0
 10
2781.54385435458
 20
1014.712634229335
 10
2781.54385435458
 20
1072.712634229335
  0
LWPOLYLINE
  5
294F
330
1F
100
AcDbEntity
  8
0
100
AcDbPolyline
 90
        2
 70
     0
 43
0.0
 10
2783.543854354582
 20
1012.212634229335
 10
2783.543854354582
 20
1041.212634229335
  0
LWPOLYLINE
  5
2950
330
1F
100
AcDbEntity
  8
0
100
AcDbPolyline
 90
        2
 70
     0
 43
0.0
 10
2783.543854354582
 20
1046.212634229335
 10
2783.54385435458
 20
1075.212634229335
  0
LWPOLYLINE
  5
2951
330
1F
100
AcDbEntity
  8
0
100
AcDbPolyline
 90
        2
 70
     0
 43
0.0
 10
2785.54385435458
 20
1014.712634229335
 10
2785.54385435458
 20
1072.712634229335
  0
LWPOLYLINE
  5
2952
330
1F
100
AcDbEntity
  8
0
100
AcDbPolyline
 90
        2
 70
     0
 43
0.0
 10
2789.54385435458
 20
1014.712634229335
 10
2789.54385435458
 20
1072.712634229335
  0
LWPOLYLINE
  5
2953
330
1F
100
AcDbEntity
  8
0
100
AcDbPolyline
 90
        6
 70
     0
 43
0.0
 10
2787.543854354581
 20
1041.212634229335
 10
2787.543854354581
 20
1012.212634229335
 10
2825.543854354581
 20
1012.212634229335
 10
2825.543854354581
 20
1075.212634229335
 10
2787.543854354581
 20
1075.212634229335
 10
2787.543854354581
 20
1046.212634229335
  0
LWPOLYLINE
  5
2954
330
1F
100
AcDbEntity
  8
0
100
AcDbPolyline
 90
        4
 70
     1
 43
0.0
 10
2820.543854354581
 20
1015.212634229335
 10
2820.543854354581
 20
1018.212634229335
 10
2815.543854354582
 20
1018.212634229335
 10
2815.543854354582
 20
1015.212634229335
  0
LWPOLYLINE
  5
2955
330
1F
100
AcDbEntity
  8
0
100
AcDbPolyline
 90
        4
 70
     1
 43
0.0
 10
2810.54385435458
 20
1015.212634229335
 10
2805.543854354581
 20
1015.212634229335
 10
2805.543854354581
 20
1018.212634229335
 10
2810.54385435458
 20
1018.212634229335
  0
LWPOLYLINE
  5
2956
330
1F
100
AcDbEntity
  8
0
100
AcDbPolyline
 90
        4
 70
     1
 43
0.0
 10
2820.543854354581
 20
1072.212634229335
 10
2820.543854354581
 20
1069.212634229335
 10
2815.543854354582
 20
1069.212634229335
 10
2815.543854354582
 20
1072.212634229335
  0
LWPOLYLINE
  5
2957
330
1F
100
AcDbEntity
  8
0
100
AcDbPolyline
 90
        4
 70
     1
 43
0.0
 10
2810.54385435458
 20
1072.212634229335
 10
2805.543854354581
 20
1072.212634229335
 10
2805.543854354581
 20
1069.212634229335
 10
2810.54385435458
 20
1069.212634229335
  0
LWPOLYLINE
  5
2958
330
1F
100
AcDbEntity
  8
0
100
AcDbPolyline
 90
        6
 70
     0
 43
0.0
 10
2791.543854354579
 20
1041.212634229335
 10
2791.543854354581
 20
1012.212634229335
 10
2781.543854354581
 20
1012.212634229335
 10
2776.543854354581
 20
1012.212634229335
 10
2764.543854354585
 20
1012.212634229335
 10
2764.543854354585
 20
1041.212634229335
  0
LWPOLYLINE
  5
2959
330
1F
100
AcDbEntity
  8
0
100
AcDbPolyline
 90
        6
 70
     0
 43
0.0
 10
2764.543854354585
 20
1046.212634229335
 10
2764.543854354585
 20
1075.212634229335
 10
2776.543854354581
 20
1075.212634229335
 10
2781.543854354581
 20
1075.212634229335
 10
2791.543854354581
 20
1075.212634229335
 10
2791.543854354581
 20
1046.212634229335
  0
LWPOLYLINE
  5
295A
330
1F
100
AcDbEntity
  8
0
100
AcDbPolyline
 90
        2
 70
     0
 43
0.0
 10
2793.54385435458
 20
1014.712634229335
 10
2793.54385435458
 20
1072.712634229335
  0
LWPOLYLINE
  5
295B
330
1F
100
AcDbEntity
  8
0
100
AcDbPolyline
 90
        2
 70
     0
 43
0.0
 10
2762.543854354581
 20
1014.712634229335
 10
2762.543854354581
 20
1072.712634229335
  0
LWPOLYLINE
  5
295C
330
1F
100
AcDbEntity
  8
0
100
AcDbPolyline
 90
        2
 70
     0
 43
0.0
 10
2795.54385435458
 20
1012.212634229335
 10
2795.54385435458
 20
1041.212634229335
  0
LWPOLYLINE
  5
295D
330
1F
100
AcDbEntity
  8
0
100
AcDbPolyline
 90
        2
 70
     0
 43
0.0
 10
2795.54385435458
 20
1046.212634229335
 10
2795.54385435458
 20
1075.212634229335
  0
LWPOLYLINE
  5
298E
330
1F
100
AcDbEntity
  8
0
100
AcDbPolyline
 90
        4
 70
     1
 43
0.0
 10
2492.264537078381
 20
1152.450471408329
 10
2894.142303894942
 20
1152.450471408329
 10
2894.142303894942
 20
999.699852153846
 10
2492.264537078381
 20
999.699852153846
  0
LINE
  5
2A2F
330
1F
100
AcDbEntity
  8
0
100
AcDbLine
 10
2562.714815617428
 20
1069.923810802634
 30
0.0
 11
2572.714815617428
 21
1069.923810802634
 31
0.0
  0
ARC
  5
2A30
330
1F
100
AcDbEntity
  8
0
100
AcDbCircle
 10
2572.714815617429
 20
1059.923810802633
 30
0.0
 40
10.00000000000113
100
AcDbArc
 50
0.0000000000065138
 51
90.00000000000522
  0
LINE
  5
2A31
330
1F
100
AcDbEntity
  8
0
100
AcDbLine
 10
2582.714815617431
 20
1059.923810802634
 30
0.0
 11
2582.714815617431
 21
1058.923810802634
 31
0.0
  0
LINE
  5
2A32
330
1F
100
AcDbEntity
  8
0
100
AcDbLine
 10
2582.714815617431
 20
1058.923810802634
 30
0.0
 11
2585.714815617429
 21
1058.923810802634
 31
0.0
  0
LINE
  5
2A33
330
1F
100
AcDbEntity
  8
0
100
AcDbLine
 10
2585.714815617429
 20
1058.923810802634
 30
0.0
 11
2585.714815617429
 21
1055.923810802634
 31
0.0
  0
LINE
  5
2A34
330
1F
100
AcDbEntity
  8
0
100
AcDbLine
 10
2585.714815617429
 20
1055.923810802634
 30
0.0
 11
2582.714815617431
 21
1055.923810802634
 31
0.0
  0
LINE
  5
2A35
330
1F
100
AcDbEntity
  8
0
100
AcDbLine
 10
2582.714815617431
 20
1055.923810802634
 30
0.0
 11
2582.714815617428
 21
1054.923810802634
 31
0.0
  0
ARC
  5
2A36
330
1F
100
AcDbEntity
  8
0
100
AcDbCircle
 10
2572.714815617428
 20
1054.923810802634
 30
0.0
 40
10.0
100
AcDbArc
 50
270.0
 51
0.0
  0
LINE
  5
2A37
330
1F
100
AcDbEntity
  8
0
100
AcDbLine
 10
2572.714815617428
 20
1044.923810802634
 30
0.0
 11
2562.714815617431
 21
1044.923810802634
 31
0.0
  0
LINE
  5
2A38
330
1F
100
AcDbEntity
  8
0
100
AcDbLine
 10
2562.714815617431
 20
1044.923810802634
 30
0.0
 11
2562.714815617431
 21
1041.923810802634
 31
0.0
  0
LINE
  5
2A39
330
1F
100
AcDbEntity
  8
0
100
AcDbLine
 10
2562.714815617431
 20
1041.923810802634
 30
0.0
 11
2552.714815617428
 21
1041.923810802634
 31
0.0
  0
LINE
  5
2A3A
330
1F
100
AcDbEntity
  8
0
100
AcDbLine
 10
2552.714815617428
 20
1041.923810802634
 30
0.0
 11
2552.714815617428
 21
1044.923810802634
 31
0.0
  0
LINE
  5
2A3B
330
1F
100
AcDbEntity
  8
0
100
AcDbLine
 10
2552.714815617428
 20
1044.923810802634
 30
0.0
 11
2532.714815617428
 21
1044.923810802634
 31
0.0
  0
LINE
  5
2A3C
330
1F
100
AcDbEntity
  8
0
100
AcDbLine
 10
2532.714815617428
 20
1044.923810802634
 30
0.0
 11
2532.714815617428
 21
1041.923810802634
 31
0.0
  0
LINE
  5
2A3D
330
1F
100
AcDbEntity
  8
0
100
AcDbLine
 10
2532.714815617428
 20
1041.923810802634
 30
0.0
 11
2522.714815617428
 21
1041.923810802634
 31
0.0
  0
LINE
  5
2A3E
330
1F
100
AcDbEntity
  8
0
100
AcDbLine
 10
2522.714815617428
 20
1041.923810802634
 30
0.0
 11
2522.714815617428
 21
1044.923810802634
 31
0.0
  0
LINE
  5
2A3F
330
1F
100
AcDbEntity
  8
0
100
AcDbLine
 10
2522.714815617428
 20
1044.923810802634
 30
0.0
 11
2512.714815617429
 21
1044.923810802634
 31
0.0
  0
ARC
  5
2A40
330
1F
100
AcDbEntity
  8
0
100
AcDbCircle
 10
2512.714815617429
 20
1054.923810802634
 30
0.0
 40
10.00000000000045
100
AcDbArc
 50
180.0000000000025
 51
270.0000000000026
  0
LINE
  5
2A41
330
1F
100
AcDbEntity
  8
0
100
AcDbLine
 10
2502.714815617428
 20
1054.923810802634
 30
0.0
 11
2502.714815617428
 21
1055.923810802634
 31
0.0
  0
LINE
  5
2A42
330
1F
100
AcDbEntity
  8
0
100
AcDbLine
 10
2502.714815617428
 20
1055.923810802634
 30
0.0
 11
2499.714815617428
 21
1055.923810802634
 31
0.0
  0
LINE
  5
2A43
330
1F
100
AcDbEntity
  8
0
100
AcDbLine
 10
2499.714815617428
 20
1055.923810802634
 30
0.0
 11
2499.714815617428
 21
1058.923810802634
 31
0.0
  0
LINE
  5
2A44
330
1F
100
AcDbEntity
  8
0
100
AcDbLine
 10
2499.714815617428
 20
1058.923810802634
 30
0.0
 11
2502.714815617428
 21
1058.923810802634
 31
0.0
  0
LINE
  5
2A45
330
1F
100
AcDbEntity
  8
0
100
AcDbLine
 10
2502.714815617428
 20
1058.923810802634
 30
0.0
 11
2502.714815617431
 21
1059.923810802634
 31
0.0
  0
ARC
  5
2A46
330
1F
100
AcDbEntity
  8
0
100
AcDbCircle
 10
2512.71481561743
 20
1059.923810802635
 30
0.0
 40
9.999999999999545
100
AcDbArc
 50
90.00000000000522
 51
180.0000000000038
  0
LINE
  5
2A47
330
1F
100
AcDbEntity
  8
0
100
AcDbLine
 10
2512.714815617429
 20
1069.923810802634
 30
0.0
 11
2522.714815617428
 21
1069.923810802634
 31
0.0
  0
LINE
  5
2A48
330
1F
100
AcDbEntity
  8
0
100
AcDbLine
 10
2522.714815617428
 20
1069.923810802634
 30
0.0
 11
2522.714815617428
 21
1074.923810802634
 31
0.0
  0
LINE
  5
2A49
330
1F
100
AcDbEntity
  8
0
100
AcDbLine
 10
2522.714815617428
 20
1074.923810802634
 30
0.0
 11
2527.714815617428
 21
1074.923810802634
 31
0.0
  0
LINE
  5
2A4A
330
1F
100
AcDbEntity
  8
0
100
AcDbLine
 10
2527.714815617428
 20
1074.923810802634
 30
0.0
 11
2527.714815617428
 21
1072.923810802634
 31
0.0
  0
LINE
  5
2A4B
330
1F
100
AcDbEntity
  8
0
100
AcDbLine
 10
2527.714815617428
 20
1072.923810802634
 30
0.0
 11
2525.71481561743
 21
1072.923810802634
 31
0.0
  0
LINE
  5
2A4C
330
1F
100
AcDbEntity
  8
0
100
AcDbLine
 10
2525.71481561743
 20
1072.923810802634
 30
0.0
 11
2525.71481561743
 21
1069.923810802634
 31
0.0
  0
LINE
  5
2A4D
330
1F
100
AcDbEntity
  8
0
100
AcDbLine
 10
2525.71481561743
 20
1069.923810802634
 30
0.0
 11
2532.714815617428
 21
1069.923810802634
 31
0.0
  0
LINE
  5
2A4E
330
1F
100
AcDbEntity
  8
0
100
AcDbLine
 10
2532.714815617428
 20
1069.923810802634
 30
0.0
 11
2532.714815617428
 21
1074.923810802634
 31
0.0
  0
LINE
  5
2A4F
330
1F
100
AcDbEntity
  8
0
100
AcDbLine
 10
2532.714815617428
 20
1074.923810802634
 30
0.0
 11
2537.714815617429
 21
1074.923810802634
 31
0.0
  0
LINE
  5
2A50
330
1F
100
AcDbEntity
  8
0
100
AcDbLine
 10
2537.714815617429
 20
1074.923810802634
 30
0.0
 11
2537.714815617429
 21
1072.923810802634
 31
0.0
  0
LINE
  5
2A51
330
1F
100
AcDbEntity
  8
0
100
AcDbLine
 10
2537.714815617429
 20
1072.923810802634
 30
0.0
 11
2535.714815617428
 21
1072.923810802634
 31
0.0
  0
LINE
  5
2A52
330
1F
100
AcDbEntity
  8
0
100
AcDbLine
 10
2535.714815617428
 20
1072.923810802634
 30
0.0
 11
2535.714815617428
 21
1069.923810802634
 31
0.0
  0
LINE
  5
2A53
330
1F
100
AcDbEntity
  8
0
100
AcDbLine
 10
2535.714815617428
 20
1069.923810802634
 30
0.0
 11
2549.714815617428
 21
1069.923810802634
 31
0.0
  0
LINE
  5
2A54
330
1F
100
AcDbEntity
  8
0
100
AcDbLine
 10
2549.714815617428
 20
1069.923810802634
 30
0.0
 11
2549.714815617428
 21
1072.923810802634
 31
0.0
  0
LINE
  5
2A55
330
1F
100
AcDbEntity
  8
0
100
AcDbLine
 10
2549.714815617428
 20
1072.923810802634
 30
0.0
 11
2547.714815617428
 21
1072.923810802634
 31
0.0
  0
LINE
  5
2A56
330
1F
100
AcDbEntity
  8
0
100
AcDbLine
 10
2547.714815617428
 20
1072.923810802634
 30
0.0
 11
2547.714815617428
 21
1074.923810802634
 31
0.0
  0
LINE
  5
2A57
330
1F
100
AcDbEntity
  8
0
100
AcDbLine
 10
2547.714815617428
 20
1074.923810802634
 30
0.0
 11
2552.714815617428
 21
1074.923810802634
 31
0.0
  0
LINE
  5
2A58
330
1F
100
AcDbEntity
  8
0
100
AcDbLine
 10
2552.714815617428
 20
1074.923810802634
 30
0.0
 11
2552.714815617428
 21
1069.923810802634
 31
0.0
  0
LINE
  5
2A59
330
1F
100
AcDbEntity
  8
0
100
AcDbLine
 10
2552.714815617428
 20
1069.923810802634
 30
0.0
 11
2559.714815617428
 21
1069.923810802634
 31
0.0
  0
LINE
  5
2A5A
330
1F
100
AcDbEntity
  8
0
100
AcDbLine
 10
2559.714815617428
 20
1069.923810802634
 30
0.0
 11
2559.714815617428
 21
1072.923810802634
 31
0.0
  0
LINE
  5
2A5B
330
1F
100
AcDbEntity
  8
0
100
AcDbLine
 10
2559.714815617428
 20
1072.923810802634
 30
0.0
 11
2557.71481561743
 21
1072.923810802634
 31
0.0
  0
LINE
  5
2A5C
330
1F
100
AcDbEntity
  8
0
100
AcDbLine
 10
2557.71481561743
 20
1072.923810802634
 30
0.0
 11
2557.71481561743
 21
1074.923810802634
 31
0.0
  0
LINE
  5
2A5D
330
1F
100
AcDbEntity
  8
0
100
AcDbLine
 10
2557.71481561743
 20
1074.923810802634
 30
0.0
 11
2562.714815617431
 21
1074.923810802634
 31
0.0
  0
LINE
  5
2A5E
330
1F
100
AcDbEntity
  8
0
100
AcDbLine
 10
2562.714815617431
 20
1074.923810802634
 30
0.0
 11
2562.714815617428
 21
1069.923810802634
 31
0.0
  0
LINE
  5
2A65
330
1F
100
AcDbEntity
  8
0
100
AcDbLine
 10
2562.714815617427
 20
1034.153884797088
 30
0.0
 11
2572.714815617428
 21
1034.153884797088
 31
0.0
  0
ARC
  5
2A66
330
1F
100
AcDbEntity
  8
0
100
AcDbCircle
 10
2572.714815617428
 20
1024.153884797088
 30
0.0
 40
10.0
100
AcDbArc
 50
0.0
 51
90.0
  0
LINE
  5
2A67
330
1F
100
AcDbEntity
  8
0
100
AcDbLine
 10
2582.714815617428
 20
1024.153884797088
 30
0.0
 11
2582.714815617428
 21
1023.153884797088
 31
0.0
  0
LINE
  5
2A68
330
1F
100
AcDbEntity
  8
0
100
AcDbLine
 10
2582.714815617428
 20
1023.153884797088
 30
0.0
 11
2585.714815617429
 21
1023.153884797088
 31
0.0
  0
LINE
  5
2A69
330
1F
100
AcDbEntity
  8
0
100
AcDbLine
 10
2585.714815617429
 20
1023.153884797088
 30
0.0
 11
2585.714815617429
 21
1020.153884797088
 31
0.0
  0
LINE
  5
2A6A
330
1F
100
AcDbEntity
  8
0
100
AcDbLine
 10
2585.714815617429
 20
1020.153884797088
 30
0.0
 11
2582.714815617428
 21
1020.153884797088
 31
0.0
  0
LINE
  5
2A6B
330
1F
100
AcDbEntity
  8
0
100
AcDbLine
 10
2582.714815617428
 20
1020.153884797088
 30
0.0
 11
2582.714815617428
 21
1019.153884797088
 31
0.0
  0
ARC
  5
2A6C
330
1F
100
AcDbEntity
  8
0
100
AcDbCircle
 10
2572.714815617428
 20
1019.153884797088
 30
0.0
 40
10.0
100
AcDbArc
 50
270.0
 51
0.0
  0
LINE
  5
2A6D
330
1F
100
AcDbEntity
  8
0
100
AcDbLine
 10
2572.714815617428
 20
1009.153884797088
 30
0.0
 11
2562.714815617428
 21
1009.153884797088
 31
0.0
  0
LINE
  5
2A6E
330
1F
100
AcDbEntity
  8
0
100
AcDbLine
 10
2562.714815617428
 20
1009.153884797088
 30
0.0
 11
2562.714815617428
 21
1006.153884797088
 31
0.0
  0
LINE
  5
2A6F
330
1F
100
AcDbEntity
  8
0
100
AcDbLine
 10
2562.714815617428
 20
1006.153884797088
 30
0.0
 11
2552.714815617428
 21
1006.153884797088
 31
0.0
  0
LINE
  5
2A70
330
1F
100
AcDbEntity
  8
0
100
AcDbLine
 10
2552.714815617428
 20
1006.153884797088
 30
0.0
 11
2552.714815617428
 21
1009.153884797088
 31
0.0
  0
LINE
  5
2A71
330
1F
100
AcDbEntity
  8
0
100
AcDbLine
 10
2552.714815617428
 20
1009.153884797088
 30
0.0
 11
2532.714815617428
 21
1009.153884797088
 31
0.0
  0
LINE
  5
2A72
330
1F
100
AcDbEntity
  8
0
100
AcDbLine
 10
2532.714815617428
 20
1009.153884797088
 30
0.0
 11
2532.714815617428
 21
1006.153884797088
 31
0.0
  0
LINE
  5
2A73
330
1F
100
AcDbEntity
  8
0
100
AcDbLine
 10
2532.714815617428
 20
1006.153884797088
 30
0.0
 11
2522.714815617428
 21
1006.153884797088
 31
0.0
  0
LINE
  5
2A74
330
1F
100
AcDbEntity
  8
0
100
AcDbLine
 10
2522.714815617428
 20
1006.153884797088
 30
0.0
 11
2522.714815617428
 21
1009.153884797088
 31
0.0
  0
LINE
  5
2A75
330
1F
100
AcDbEntity
  8
0
100
AcDbLine
 10
2522.714815617428
 20
1009.153884797088
 30
0.0
 11
2512.714815617429
 21
1009.153884797088
 31
0.0
  0
ARC
  5
2A76
330
1F
100
AcDbEntity
  8
0
100
AcDbCircle
 10
2512.714815617429
 20
1019.153884797088
 30
0.0
 40
10.00000000000045
100
AcDbArc
 50
180.0000000000025
 51
270.0000000000026
  0
LINE
  5
2A77
330
1F
100
AcDbEntity
  8
0
100
AcDbLine
 10
2502.714815617428
 20
1019.153884797088
 30
0.0
 11
2502.714815617428
 21
1020.153884797088
 31
0.0
  0
LINE
  5
2A78
330
1F
100
AcDbEntity
  8
0
100
AcDbLine
 10
2502.714815617428
 20
1020.153884797088
 30
0.0
 11
2499.714815617428
 21
1020.153884797088
 31
0.0
  0
LINE
  5
2A79
330
1F
100
AcDbEntity
  8
0
100
AcDbLine
 10
2499.714815617428
 20
1020.153884797088
 30
0.0
 11
2499.714815617428
 21
1023.153884797088
 31
0.0
  0
LINE
  5
2A7A
330
1F
100
AcDbEntity
  8
0
100
AcDbLine
 10
2499.714815617428
 20
1023.153884797088
 30
0.0
 11
2502.714815617428
 21
1023.153884797088
 31
0.0
  0
LINE
  5
2A7B
330
1F
100
AcDbEntity
  8
0
100
AcDbLine
 10
2502.714815617428
 20
1023.153884797088
 30
0.0
 11
2502.714815617428
 21
1024.153884797088
 31
0.0
  0
ARC
  5
2A7C
330
1F
100
AcDbEntity
  8
0
100
AcDbCircle
 10
2512.714815617429
 20
1024.153884797087
 30
0.0
 40
10.00000000000045
100
AcDbArc
 50
89.99999999999738
 51
179.9999999999974
  0
LINE
  5
2A7D
330
1F
100
AcDbEntity
  8
0
100
AcDbLine
 10
2512.714815617429
 20
1034.153884797088
 30
0.0
 11
2522.714815617428
 21
1034.153884797088
 31
0.0
  0
LINE
  5
2A7E
330
1F
100
AcDbEntity
  8
0
100
AcDbLine
 10
2522.714815617428
 20
1034.153884797088
 30
0.0
 11
2522.714815617428
 21
1039.153884797088
 31
0.0
  0
LINE
  5
2A7F
330
1F
100
AcDbEntity
  8
0
100
AcDbLine
 10
2522.714815617428
 20
1039.153884797088
 30
0.0
 11
2527.714815617428
 21
1039.153884797088
 31
0.0
  0
LINE
  5
2A80
330
1F
100
AcDbEntity
  8
0
100
AcDbLine
 10
2527.714815617428
 20
1039.153884797088
 30
0.0
 11
2527.714815617428
 21
1037.153884797088
 31
0.0
  0
LINE
  5
2A81
330
1F
100
AcDbEntity
  8
0
100
AcDbLine
 10
2527.714815617428
 20
1037.153884797088
 30
0.0
 11
2525.714815617428
 21
1037.153884797088
 31
0.0
  0
LINE
  5
2A82
330
1F
100
AcDbEntity
  8
0
100
AcDbLine
 10
2525.714815617428
 20
1037.153884797088
 30
0.0
 11
2525.714815617428
 21
1034.153884797088
 31
0.0
  0
LINE
  5
2A83
330
1F
100
AcDbEntity
  8
0
100
AcDbLine
 10
2525.714815617428
 20
1034.153884797088
 30
0.0
 11
2532.714815617428
 21
1034.153884797088
 31
0.0
  0
LINE
  5
2A84
330
1F
100
AcDbEntity
  8
0
100
AcDbLine
 10
2532.714815617428
 20
1034.153884797088
 30
0.0
 11
2532.714815617428
 21
1039.153884797088
 31
0.0
  0
LINE
  5
2A85
330
1F
100
AcDbEntity
  8
0
100
AcDbLine
 10
2532.714815617428
 20
1039.153884797088
 30
0.0
 11
2537.714815617428
 21
1039.153884797088
 31
0.0
  0
LINE
  5
2A86
330
1F
100
AcDbEntity
  8
0
100
AcDbLine
 10
2537.714815617428
 20
1039.153884797088
 30
0.0
 11
2537.714815617428
 21
1037.153884797088
 31
0.0
  0
LINE
  5
2A87
330
1F
100
AcDbEntity
  8
0
100
AcDbLine
 10
2537.714815617428
 20
1037.153884797088
 30
0.0
 11
2535.714815617428
 21
1037.153884797088
 31
0.0
  0
LINE
  5
2A88
330
1F
100
AcDbEntity
  8
0
100
AcDbLine
 10
2535.714815617428
 20
1037.153884797088
 30
0.0
 11
2535.714815617428
 21
1034.153884797088
 31
0.0
  0
LINE
  5
2A89
330
1F
100
AcDbEntity
  8
0
100
AcDbLine
 10
2535.714815617428
 20
1034.153884797088
 30
0.0
 11
2549.714815617428
 21
1034.153884797088
 31
0.0
  0
LINE
  5
2A8A
330
1F
100
AcDbEntity
  8
0
100
AcDbLine
 10
2549.714815617428
 20
1034.153884797088
 30
0.0
 11
2549.714815617428
 21
1037.153884797088
 31
0.0
  0
LINE
  5
2A8B
330
1F
100
AcDbEntity
  8
0
100
AcDbLine
 10
2549.714815617428
 20
1037.153884797088
 30
0.0
 11
2547.714815617428
 21
1037.153884797088
 31
0.0
  0
LINE
  5
2A8C
330
1F
100
AcDbEntity
  8
0
100
AcDbLine
 10
2547.714815617428
 20
1037.153884797088
 30
0.0
 11
2547.714815617428
 21
1039.153884797088
 31
0.0
  0
LINE
  5
2A8D
330
1F
100
AcDbEntity
  8
0
100
AcDbLine
 10
2547.714815617428
 20
1039.153884797088
 30
0.0
 11
2552.714815617428
 21
1039.153884797088
 31
0.0
  0
LINE
  5
2A8E
330
1F
100
AcDbEntity
  8
0
100
AcDbLine
 10
2552.714815617428
 20
1039.153884797088
 30
0.0
 11
2552.714815617428
 21
1034.153884797088
 31
0.0
  0
LINE
  5
2A8F
330
1F
100
AcDbEntity
  8
0
100
AcDbLine
 10
2552.714815617428
 20
1034.153884797088
 30
0.0
 11
2559.714815617428
 21
1034.153884797088
 31
0.0
  0
LINE
  5
2A90
330
1F
100
AcDbEntity
  8
0
100
AcDbLine
 10
2559.714815617428
 20
1034.153884797088
 30
0.0
 11
2559.714815617428
 21
1037.153884797088
 31
0.0
  0
LINE
  5
2A91
330
1F
100
AcDbEntity
  8
0
100
AcDbLine
 10
2559.714815617428
 20
1037.153884797088
 30
0.0
 11
2557.714815617428
 21
1037.153884797088
 31
0.0
  0
LINE
  5
2A92
330
1F
100
AcDbEntity
  8
0
100
AcDbLine
 10
2557.714815617428
 20
1037.153884797088
 30
0.0
 11
2557.714815617428
 21
1039.153884797088
 31
0.0
  0
LINE
  5
2A93
330
1F
100
AcDbEntity
  8
0
100
AcDbLine
 10
2557.714815617428
 20
1039.153884797088
 30
0.0
 11
2562.714815617428
 21
1039.153884797088
 31
0.0
  0
LINE
  5
2A94
330
1F
100
AcDbEntity
  8
0
100
AcDbLine
 10
2562.714815617428
 20
1039.153884797088
 30
0.0
 11
2562.714815617427
 21
1034.153884797088
 31
0.0
  0
ENDSEC
  0
SECTION
  2
OBJECTS
  0
DICTIONARY
  5
C
330
0
100
AcDbDictionary
281
     1
  3
ACAD_CIP_PREVIOUS_PRODUCT_INFO
350
2A2E
  3
ACAD_COLOR
350
6B
  3
ACAD_DETAILVIEWSTYLE
350
2A2A
  3
ACAD_GROUP
350
D
  3
ACAD_IMAGE_DICT
350
CAA
  3
ACAD_IMAGE_VARS
350
CAB
  3
ACAD_LAYOUT
350
1A
  3
ACAD_MATERIAL
350
6A
  3
ACAD_MLEADERSTYLE
350
12D
  3
ACAD_MLINESTYLE
350
17
  3
ACAD_PLOTSETTINGS
350
19
  3
ACAD_PLOTSTYLENAME
350
E
  3
ACAD_SCALELIST
350
10C
  3
ACAD_SECTIONVIEWSTYLE
350
2A28
  3
ACAD_TABLESTYLE
350
7E
  3
ACAD_VISUALSTYLE
350
EF
  3
ACDB_RECOMPOSE_DATA
350
2A9C
  3
AcDbVariableDictionary
350
5E
  3
DWGPROPS
350
2A9D
  0
DICTIONARY
  5
13C
330
10
100
AcDbDictionary
280
     1
281
     1
  0
DICTIONARY
  5
1CE
330
1F
100
AcDbDictionary
280
     1
281
     1
  3
ACAD_SORTENTS
360
2B1
  0
XRECORD
  5
2A2E
102
{ACAD_REACTORS
330
C
102
}
330
C
100
AcDbXrecord
280
     1
300
ACD
300
2018
300
ACD_F_S
  0
DICTIONARY
  5
6B
102
{ACAD_REACTORS
330
C
102
}
330
C
100
AcDbDictionary
281
     1
  0
DICTIONARY
  5
2A2A
102
{ACAD_REACTORS
330
C
102
}
330
C
100
AcDbDictionary
281
     1
  3
Metric50
350
2A2B
  0
DICTIONARY
  5
D
102
{ACAD_REACTORS
330
C
102
}
330
C
100
AcDbDictionary
281
     1
  0
DICTIONARY
  5
CAA
102
{ACAD_REACTORS
330
C
102
}
330
C
100
AcDbDictionary
281
     1
  3
QQ图片20171102151159
350
CAC
  0
RASTERVARIABLES
  5
CAB
102
{ACAD_REACTORS
330
C
102
}
330
C
100
AcDbRasterVariables
 90
        0
 70
     1
 71
     1
 72
     1
  0
DICTIONARY
  5
1A
102
{ACAD_REACTORS
330
C
102
}
330
C
100
AcDbDictionary
281
     1
  3
Model
350
22
  3
布局1
350
D3
  3
布局2
350
D7
  0
DICTIONARY
  5
6A
102
{ACAD_REACTORS
330
C
102
}
330
C
100
AcDbDictionary
281
     1
  3
ByBlock
350
ED
  3
ByLayer
350
EC
  3
Global
350
EE
  0
DICTIONARY
  5
12D
102
{ACAD_REACTORS
330
C
102
}
330
C
100
AcDbDictionary
281
     1
  3
Annotative
350
13B
  3
Standard
350
12E
  0
DICTIONARY
  5
17
102
{ACAD_REACTORS
330
C
102
}
330
C
100
AcDbDictionary
281
     1
  3
Standard
350
18
  0
DICTIONARY
  5
19
102
{ACAD_REACTORS
330
C
102
}
330
C
100
AcDbDictionary
281
     1
  0
ACDBDICTIONARYWDFLT
  5
E
102
{ACAD_REACTORS
330
C
102
}
330
C
100
AcDbDictionary
281
     1
  3
Normal
350
F
100
AcDbDictionaryWithDefault
340
F
  0
DICTIONARY
  5
10C
102
{ACAD_REACTORS
330
C
102
}
330
C
100
AcDbDictionary
281
     1
  3
A0
350
10D
  3
A1
350
1BE
  3
A2
350
1BF
  3
A3
350
1C0
  3
A4
350
1C1
  3
A5
350
1C2
  3
A6
350
1C3
  3
A7
350
1C4
  3
A8
350
1C5
  3
A9
350
1C6
  3
B0
350
1C7
  3
B1
350
1C8
  3
B2
350
1C9
  3
B3
350
1CA
  3
B4
350
1CB
  3
B5
350
1CC
  3
B6
350
1CD
  0
DICTIONARY
  5
2A28
102
{ACAD_REACTORS
330
C
102
}
330
C
100
AcDbDictionary
281
     1
  3
Metric50
350
2A29
  0
DICTIONARY
  5
7E
102
{ACAD_REACTORS
330
C
102
}
330
C
100
AcDbDictionary
281
     1
  3
Standard
350
7F
  0
DICTIONARY
  5
EF
102
{ACAD_REACTORS
330
C
102
}
330
C
100
AcDbDictionary
281
     1
  3
2dWireframe
350
F5
  3
3D Hidden
350
F7
  3
3dWireframe
350
F6
  3
Basic
350
F4
  3
Brighten
350
FB
  3
ColorChange
350
FF
  3
Conceptual
350
F8
  3
Dim
350
FA
  3
EdgeColorOff
350
1E6
  3
Facepattern
350
FE
  3
Flat
350
F0
  3
FlatWithEdges
350
F1
  3
Gouraud
350
F2
  3
GouraudWithEdges
350
F3
  3
Hidden
350
2A22
  3
JitterOff
350
1E4
  3
Linepattern
350
FD
  3
OverhangOff
350
1E5
  3
Realistic
350
F9
  3
Shaded
350
2A27
  3
Shaded with edges
350
2A26
  3
Shades of Gray
350
2A23
  3
Sketchy
350
2A24
  3
Thicken
350
FC
  3
Wireframe
350
2A21
  3
X-Ray
350
2A25
  0
XRECORD
  5
2A9C
102
{ACAD_REACTORS
330
C
102
}
330
C
100
AcDbXrecord
280
     1
 90
        1
330
7F
  0
DICTIONARY
  5
5E
102
{ACAD_REACTORS
330
C
102
}
330
C
100
AcDbDictionary
281
     1
  3
CANNOSCALE
350
146
  3
CMLEADERSTYLE
350
145
  3
CTABLESTYLE
350
84
  3
CVIEWDETAILSTYLE
350
2A95
  3
CVIEWSECTIONSTYLE
350
2A96
  3
DIMASSOC
350
5F
  3
HIDETEXT
350
63
  3
INDEXCTL
350
1F7
  3
LAYEREVAL
350
1AE
  3
LAYERNOTIFY
350
1AF
  3
LIGHTINGUNITS
350
1F5
  3
MSLTSCALE
350
1F4
  3
PSOLHEIGHT
350
2A98
  3
PSOLWIDTH
350
2A97
  3
SORTENTS
350
1F6
  3
XCLIPFRAME
350
2A99
  0
XRECORD
  5
2A9D
102
{ACAD_REACTORS
330
C
102
}
330
C
100
AcDbXrecord
280
     1
  1
DWGPROPS COOKIE
  2

  3

  4

  6

  7

  8
ｗｉｎ
  9

300
=
301
=
302
=
303
=
304
=
305
=
306
=
307
=
308
=
309
=
 40
0.2361629629629629
 41
2458060.606041667
 42
2458186.453958334
  1

 90
        0
  0
SORTENTSTABLE
  5
2B1
102
{ACAD_REACTORS
330
1CE
102
}
330
1CE
100
AcDbSortentsTable
330
1F
331
1212
  5
163E
331
1169
  5
15CA
331
1216
  5
1642
331
116D
  5
1603
331
2A80
  5
26E2
331
2A3B
  5
2922
331
2A84
  5
26E8
331
2A3F
  5
2926
331
2A78
  5
26A4
331
2A33
  5
291A
331
2819
  5
2A40
331
26D0
  5
2718
331
2A7C
  5
26AE
331
2920
  5
2A50
331
2A37
  5
291E
331
2A70
  5
268E
331
2924
  5
2A54
331
2A74
  5
2698
331
2959
  5
2A8F
331
2918
  5
2A48
331
27BD
  5
2A3C
331
26CC
  5
2757
331
2634
  5
2A33
331
295D
  5
2A93
331
291C
  5
2A4C
331
2669
  5
294B
331
266D
  5
2948
331
1139
  5
159A
331
113D
  5
159E
331
1053
  5
1582
331
1209
  5
1635
331
120D
  5
1639
331
1201
  5
162D
331
1205
  5
1631
331
2A2F
  5
28B6
331
2A68
  5
267E
331
2758
  5
2A35
331
2A6C
  5
2682
331
2950
  5
2A86
331
275C
  5
2A39
331
2954
  5
2A8A
331
2948
  5
2A7E
331
2664
  5
294F
331
2658
  5
2953
331
294C
  5
2A82
331
26C1
  5
275A
331
265C
  5
2952
331
26C5
  5
2759
331
1100
  5
1216
331
1161
  5
15C2
331
1165
  5
15C6
331
1000
  5
1596
331
B18
  5
1212
331
11FD
  5
1629
331
1189
  5
161F
331
118D
  5
1623
331
2A5B
  5
2942
331
2A53
  5
293A
331
2940
  5
2A76
331
2A57
  5
293E
331
2650
  5
2957
331
2944
  5
2A7A
331
26B9
  5
27C0
331
2938
  5
2A6E
331
2885
  5
2A45
331
270C
  5
2642
331
293C
  5
2A72
331
1159
  5
15BA
331
115D
  5
15BE
331
1151
  5
15B2
331
1155
  5
15B6
331
B17
  5
1211
331
1180
  5
1616
331
1026
  5
158C
331
1184
  5
161A
331
1221
  5
164D
331
1178
  5
160E
331
1225
  5
1651
331
117C
  5
1612
331
2A93
  5
270D
331
2A4B
  5
2932
331
2A8B
  5
26F7
331
2A4F
  5
2936
331
2A8F
  5
26FF
331
2933
  5
2A69
331
2850
  5
2A41
331
2A43
  5
292A
331
26E7
  5
2667
331
2937
  5
2A6D
331
2854
  5
2A44
331
2A47
  5
292E
331
292B
  5
2A5B
331
292F
  5
2A65
331
26A0
  5
2885
331
1148
  5
15A9
331
114C
  5
15AD
331
1140
  5
15A1
331
1144
  5
15A5
331
A0F
  5
120D
331
101E
  5
158E
331
1170
  5
1606
331
105B
  5
1580
331
1219
  5
1645
331
121D
  5
1649
331
1174
  5
160A
331
105F
  5
157F
331
1211
  5
163D
331
1168
  5
15C9
331
1215
  5
1641
331
116C
  5
15CD
331
2A83
  5
26E6
331
2A87
  5
26EB
331
2A3A
  5
2921
331
2A7B
  5
26AD
331
2A3E
  5
2925
331
26D3
  5
2716
331
2A7F
  5
26E1
331
2A32
  5
2919
331
2923
  5
2A53
331
2818
  5
2A3F
331
2A73
  5
2695
331
2A36
  5
291D
331
26CB
  5
2758
331
2927
  5
2A57
331
2A77
  5
26A3
331
291B
  5
2A4B
331
2637
  5
2A30
331
26CF
  5
2719
331
2958
  5
2A8E
331
291F
  5
2A4F
331
27BC
  5
2A3B
331
295C
  5
2A92
331
266C
  5
2949
331
1138
  5
1599
331
113C
  5
159D
331
1208
  5
1634
331
120C
  5
1638
331
1200
  5
162C
331
1204
  5
1630
331
2A6B
  5
2681
331
275B
  5
2A38
331
2A6F
  5
268D
331
2953
  5
2A89
331
2957
  5
2A8D
331
2663
  5
2950
331
2A67
  5
267C
331
294B
  5
2A81
331
2757
  5
2A34
331
2667
  5
294C
331
294F
  5
2A85
331
26C0
  5
275B
331
1160
  5
15C1
331
10FF
  5
1215
331
1164
  5
15C5
331
44E
  5
923
331
1042
  5
1587
331
11FC
  5
1628
331
1188
  5
161E
331
118C
  5
1622
331
2A5A
  5
2941
331
2A5E
  5
2945
331
2943
  5
2A79
331
2A52
  5
2939
331
2947
  5
2A7D
331
2A56
  5
293D
331
293B
  5
2A71
331
2657
  5
2954
331
293F
  5
2A75
331
1158
  5
15B9
331
115C
  5
15BD
331
1150
  5
15B1
331
1154
  5
15B5
331
B12
  5
120F
331
B16
  5
1210
331
2B5
  5
91E
331
1076
  5
1224
331
1183
  5
1619
331
1187
  5
161D
331
117B
  5
1611
331
1220
  5
164C
331
117F
  5
1615
331
1224
  5
1650
331
2A92
  5
270A
331
2A4A
  5
2931
331
2A8A
  5
26F3
331
2A4E
  5
2935
331
2A8E
  5
26FE
331
2932
  5
2A68
331
2A42
  5
2929
331
26E6
  5
2668
331
2642
  5
295B
331
2A46
  5
292D
331
2936
  5
2A6C
331
26AB
  5
281C
331
292A
  5
2A5A
331
26DE
  5
2670
331
263A
  5
295D
331
292E
  5
2A5E
331
26A3
  5
2851
331
114B
  5
15AC
331
114F
  5
15B0
331
1143
  5
15A4
331
1147
  5
15A8
331
8C6
  5
118E
331
1173
  5
1609
331
1177
  5
160D
331
1218
  5
1644
331
121C
  5
1648
331
116B
  5
15CC
331
1210
  5
163C
331
116F
  5
1605
331
1214
  5
1640
331
2A82
  5
26E5
331
2A86
  5
26EA
331
2A39
  5
2920
331
2A7A
  5
26AC
331
2A3D
  5
2924
331
26D2
  5
2717
331
2A7E
  5
26E0
331
2A31
  5
2918
331
2922
  5
2A52
331
2A72
  5
2694
331
2A35
  5
291C
331
2926
  5
2A56
331
2A76
  5
26A0
331
295B
  5
2A91
331
291A
  5
2A4A
331
27BF
  5
2A3E
331
26CE
  5
271A
331
2636
  5
2A31
331
291E
  5
2A4E
331
1CAA
  5
281D
331
266F
  5
2946
331
113B
  5
159C
331
113F
  5
15A0
331
1137
  5
1598
331
120B
  5
1637
331
1049
  5
1585
331
120F
  5
163B
331
108A
  5
1221
331
1203
  5
162F
331
108E
  5
1220
331
1207
  5
1633
331
2A6A
  5
2680
331
275A
  5
2A37
331
2A6E
  5
2689
331
2952
  5
2A88
331
2956
  5
2A8C
331
2662
  5
2951
331
2A66
  5
267B
331
294A
  5
2A80
331
2917
  5
2A47
331
2666
  5
294D
331
294E
  5
2A84
331
1167
  5
15C8
331
10FE
  5
1214
331
401
  5
922
331
1086
  5
1222
331
1045
  5
1586
331
11FB
  5
1627
331
11FF
  5
162B
331
103D
  5
1588
331
118B
  5
1621
331
107E
  5
1223
331
118F
  5
1625
331
2A59
  5
2940
331
2A5D
  5
2944
331
2942
  5
2A78
331
2A51
  5
2938
331
2652
  5
2955
331
2A55
  5
293C
331
2946
  5
2A7C
331
26BB
  5
275C
331
293A
  5
2A70
331
264A
  5
2959
331
293E
  5
2A74
331
26B3
  5
27C2
331
115B
  5
15BC
331
10BA
  5
1219
331
115F
  5
15C0
331
10BE
  5
1218
331
1153
  5
15B4
331
1157
  5
15B8
331
10B6
  5
121A
331
2BC
  5
921
331
1071
  5
1225
331
1030
  5
158B
331
1182
  5
1618
331
1603
  5
120C
331
1186
  5
161C
331
1069
  5
1226
331
1223
  5
164F
331
117A
  5
1610
331
117E
  5
1614
331
2A91
  5
2705
331
2A49
  5
2930
331
2A89
  5
26ED
331
2852
  5
2A43
331
2A8D
  5
26FD
331
2A4D
  5
2934
331
2931
  5
2A67
331
2A41
  5
2928
331
26E5
  5
2669
331
2935
  5
2A6B
331
2A45
  5
292C
331
2929
  5
2A59
331
2846
  5
2A3A
331
2645
  5
295A
331
26AE
  5
27C3
331
26DD
  5
2671
331
2639
  5
298E
331
292D
  5
2A5D
331
26A2
  5
2852
331
263D
  5
295C
331
26A6
  5
2850
331
114A
  5
15AB
331
114E
  5
15AF
331
1142
  5
15A3
331
1146
  5
15A7
331
1018
  5
1590
331
121B
  5
1647
331
1172
  5
1608
331
1010
  5
1592
331
1176
  5
160C
331
121F
  5
164B
331
1213
  5
163F
331
116A
  5
15CB
331
1217
  5
1643
331
116E
  5
1604
331
2A81
  5
26E3
331
2A85
  5
26E9
331
2A38
  5
291F
331
2A79
  5
26A9
331
2A3C
  5
2923
331
2A7D
  5
26AF
331
2A30
  5
2917
331
2921
  5
2A51
331
2A71
  5
2693
331
26D5
  5
2715
331
2A34
  5
291B
331
298E
  5
2A94
331
2925
  5
2A55
331
2A75
  5
269B
331
295A
  5
2A90
331
2919
  5
2A49
331
27BE
  5
2A3D
331
26CD
  5
271B
331
2635
  5
2A32
331
291D
  5
2A4D
331
266A
  5
294A
331
266E
  5
2947
331
113A
  5
159B
331
1099
  5
121D
331
113E
  5
159F
331
1091
  5
121F
331
1095
  5
121E
331
858
  5
925
331
1009
  5
1594
331
598
  5
924
331
1050
  5
1583
331
100D
  5
1593
331
120A
  5
1636
331
120E
  5
163A
331
104C
  5
1584
331
1202
  5
162E
331
163F
  5
1165
331
1206
  5
1632
331
2A69
  5
267F
331
2759
  5
2A36
331
2A6D
  5
2683
331
2951
  5
2A87
331
2955
  5
2A8B
331
2A65
  5
2679
331
2949
  5
2A7F
331
2665
  5
294E
331
294D
  5
2A83
331
1162
  5
15C3
331
1166
  5
15C7
331
10FD
  5
1217
331
1005
  5
1595
331
162B
  5
1179
331
1038
  5
1589
331
11FE
  5
162A
331
118A
  5
1620
331
1617
  5
118D
331
118E
  5
1624
331
2A58
  5
293F
331
2A5C
  5
2943
331
2719
  5
2635
331
2941
  5
2A77
331
2A50
  5
2937
331
28B6
  5
2A46
331
2651
  5
2956
331
2A54
  5
293B
331
2945
  5
2A7B
331
26BA
  5
27BF
331
2939
  5
2A6F
331
293D
  5
2A73
331
264D
  5
2958
331
26B6
  5
27C1
331
115A
  5
15BB
331
115E
  5
15BF
331
1152
  5
15B3
331
1156
  5
15B7
331
2BB
  5
920
331
2B3
  5
91F
331
1033
  5
158A
331
A90
  5
120E
331
1023
  5
158D
331
1181
  5
1617
331
1185
  5
161B
331
1222
  5
164E
331
1179
  5
160F
331
1226
  5
1652
331
117D
  5
1613
331
2A90
  5
2702
331
2A94
  5
2712
331
2A48
  5
292F
331
2A88
  5
26EC
331
2851
  5
2A42
331
2A8C
  5
26F8
331
2A4C
  5
2933
331
2930
  5
2A66
331
2A40
  5
2927
331
2934
  5
2A6A
331
2A44
  5
292B
331
2928
  5
2A58
331
2638
  5
2A2F
331
292C
  5
2A5C
331
26A1
  5
2854
331
10A8
  5
121B
331
1149
  5
15AA
331
114D
  5
15AE
331
1141
  5
15A2
331
10A0
  5
121C
331
1145
  5
15A6
331
101B
  5
158F
331
1171
  5
1607
331
1064
  5
157E
331
121A
  5
1646
331
1013
  5
1591
331
1175
  5
160B
331
1058
  5
1581
331
121E
  5
164A
  0
ACDBDETAILVIEWSTYLE
  5
2A2B
102
{ACAD_XDICTIONARY
360
2ADB
102
}
102
{ACAD_REACTORS
330
2A2A
102
}
330
2A2A
100
AcDbModelDocViewStyle
 70
     0
  3
Metric50
290
     0
100
AcDbDetailViewStyle
 70
     0
 71
     0
 90
        3
 71
     1
340
11
 40
5.0
340
0
 40
5.0
300

 40
0.0
280
     1
 71
     2
340
16
 90
       25
 71
     3
340
11
 40
5.0
 90
        0
 40
15.0
 90
        1
300
%<\AcVar ViewDetailId>% (%<\AcVar ViewScale \f "%sn">%)
 71
     4
340
16
 90
       25
340
16
 90
       25
280
     0
  0
IMAGEDEF
  5
CAC
102
{ACAD_REACTORS
330
CAA
102
}
330
CAA
100
AcDbRasterImageDef
 90
        0
  1
C:\Users\Administrator\Desktop\QQ图片20171102151159.png
 10
209.0
 20
209.0
 11
0.0047846889952153
 21
0.0047846889952153
280
     1
281
     0
  0
LAYOUT
  5
22
102
{ACAD_XDICTIONARY
360
2A9E
102
}
102
{ACAD_REACTORS
330
1A
102
}
330
1A
100
AcDbPlotSettings
  1

  2
none_device
  4
ISO_A4_(210.00_x_297.00_MM)
  6

 40
7.5
 41
20.0
 42
7.5
 43
20.0
 44
210.0
 45
297.0
 46
11.54999923706054
 47
-13.65000009536743
 48
0.0
 49
0.0
140
0.0
141
0.0
142
1.0
143
8.704084754739808
 70
 11952
 72
     1
 73
     0
 74
     0
  7

 75
     0
147
0.1148885871608098
148
0.0
149
0.0
100
AcDbLayout
  1
Model
 70
     1
 71
     0
 10
0.0
 20
0.0
 11
12.0
 21
9.0
 12
0.0
 22
0.0
 32
0.0
 14
0.0
 24
0.0
 34
0.0
 15
0.0
 25
0.0
 35
0.0
146
0.0
 13
0.0
 23
0.0
 33
0.0
 16
1.0
 26
0.0
 36
0.0
 17
0.0
 27
1.0
 37
0.0
 76
     0
330
1F
331
EA
1001
ACAD_PSEXT
1000
None
1000
None
1000
Not applicable
1000
The layout will not be plotted unless a new plotter configuration name is selected.
1070
     0
  0
LAYOUT
  5
D3
102
{ACAD_XDICTIONARY
360
2AA1
102
}
102
{ACAD_REACTORS
330
1A
102
}
330
1A
100
AcDbPlotSettings
  1

  2
C:\Documents and Settings\basas\Application Data\Autodesk\AutoCAD 2005\R16.1\enu\plotters\Default Windows System Printer.pc3
  4

  6

 40
0.0
 41
0.0
 42
0.0
 43
0.0
 44
0.0
 45
0.0
 46
0.0
 47
0.0
 48
0.0
 49
0.0
140
0.0
141
0.0
142
1.0
143
1.0
 70
   688
 72
     0
 73
     0
 74
     5
  7

 75
    16
147
1.0
148
0.0
149
0.0
100
AcDbLayout
  1
布局1
 70
     1
 71
     1
 10
0.0
 20
0.0
 11
12.0
 21
9.0
 12
0.0
 22
0.0
 32
0.0
 14
0.0
 24
0.0
 34
0.0
 15
0.0
 25
0.0
 35
0.0
146
0.0
 13
0.0
 23
0.0
 33
0.0
 16
1.0
 26
0.0
 36
0.0
 17
0.0
 27
1.0
 37
0.0
 76
     0
330
D2
  0
LAYOUT
  5
D7
102
{ACAD_XDICTIONARY
360
2AA3
102
}
102
{ACAD_REACTORS
330
1A
102
}
330
1A
100
AcDbPlotSettings
  1

  2
C:\Documents and Settings\basas\Application Data\Autodesk\AutoCAD 2005\R16.1\enu\plotters\Default Windows System Printer.pc3
  4

  6

 40
0.0
 41
0.0
 42
0.0
 43
0.0
 44
0.0
 45
0.0
 46
0.0
 47
0.0
 48
0.0
 49
0.0
140
0.0
141
0.0
142
1.0
143
1.0
 70
   688
 72
     0
 73
     0
 74
     5
  7

 75
    16
147
1.0
148
0.0
149
0.0
100
AcDbLayout
  1
布局2
 70
     1
 71
     2
 10
0.0
 20
0.0
 11
12.0
 21
9.0
 12
0.0
 22
0.0
 32
0.0
 14
0.0
 24
0.0
 34
0.0
 15
0.0
 25
0.0
 35
0.0
146
0.0
 13
0.0
 23
0.0
 33
0.0
 16
1.0
 26
0.0
 36
0.0
 17
0.0
 27
1.0
 37
0.0
 76
     0
330
D6
  0
MATERIAL
  5
ED
102
{ACAD_XDICTIONARY
360
1702
102
}
102
{ACAD_REACTORS
330
6A
102
}
330
6A
100
AcDbMaterial
  1
ByBlock
  0
MATERIAL
  5
EC
102
{ACAD_XDICTIONARY
360
1700
102
}
102
{ACAD_REACTORS
330
6A
102
}
330
6A
100
AcDbMaterial
  1
ByLayer
  0
MATERIAL
  5
EE
102
{ACAD_XDICTIONARY
360
173
102
}
102
{ACAD_REACTORS
330
6A
102
}
330
6A
100
AcDbMaterial
  1
Global
 43
0.0007999999797903
 43
0.0
 43
0.0
 43
0.0
 43
0.0
 43
0.0007999999797903
 43
0.0
 43
0.0
 43
0.0
 43
0.0
 43
1.0
 43
0.0
 43
0.0
 43
0.0
 43
0.0
 43
1.0
 49
0.0007999999797903
 49
0.0
 49
0.0
 49
0.0
 49
0.0
 49
0.0007999999797903
 49
0.0
 49
0.0
 49
0.0
 49
0.0
 49
1.0
 49
0.0
 49
0.0
 49
0.0
 49
0.0
 49
1.0
142
0.0007999999797903
142
0.0
142
0.0
142
0.0
142
0.0
142
0.0007999999797903
142
0.0
142
0.0
142
0.0
142
0.0
142
1.0
142
0.0
142
0.0
142
0.0
142
0.0
142
1.0
144
0.0007999999797903
144
0.0
144
0.0
144
0.0
144
0.0
144
0.0007999999797903
144
0.0
144
0.0
144
0.0
144
0.0
144
1.0
144
0.0
144
0.0
144
0.0
144
0.0
144
1.0
1001
ACAD
1070
    -1
1070
     3
1070
     0
1000

1071
        0
1070
     0
  0
MLEADERSTYLE
  5
13B
102
{ACAD_REACTORS
330
12D
102
}
330
12D
100
AcDbMLeaderStyle
170
     2
171
     1
172
     0
 90
        2
 40
0.0
 41
0.0
173
     1
 91
-1056964608
340
14
 92
       -2
290
     1
 42
2.0
291
     1
 43
8.0
  3
Standard
 44
4.0
300

342
11
174
     1
178
     1
175
     1
176
     0
 93
-1056964608
 45
4.0
292
     0
297
     0
 46
4.0
 94
-1056964608
 47
1.0
 49
1.0
140
1.0
293
     1
141
0.0
294
     1
177
     0
142
1.0
295
     0
296
     1
143
3.75
1001
ACAD_MLEADERVER
1070
     2
  0
MLEADERSTYLE
  5
12E
102
{ACAD_REACTORS
330
12D
102
}
330
12D
100
AcDbMLeaderStyle
170
     2
171
     1
172
     0
 90
        2
 40
0.0
 41
0.0
173
     1
 91
-1056964608
340
14
 92
       -2
290
     1
 42
2.0
291
     1
 43
8.0
  3
Standard
 44
4.0
300

342
11
174
     1
178
     1
175
     1
176
     0
 93
-1056964608
 45
4.0
292
     0
297
     0
 46
4.0
 94
-1056964608
 47
1.0
 49
1.0
140
1.0
293
     1
141
0.0
294
     1
177
     0
142
1.0
295
     0
296
     0
143
3.75
1001
ACAD_MLEADERVER
1070
     2
  0
MLINESTYLE
  5
18
102
{ACAD_REACTORS
330
17
102
}
330
17
100
AcDbMlineStyle
  2
STANDARD
 70
     0
  3

 62
   256
 51
90.0
 52
90.0
 71
     2
 49
0.5
 62
   256
  6
BYLAYER
 49
-0.5
 62
   256
  6
BYLAYER
  0
ACDBPLACEHOLDER
  5
F
102
{ACAD_REACTORS
330
E
102
}
330
E
  0
SCALE
  5
10D
102
{ACAD_REACTORS
330
10C
102
}
330
10C
100
AcDbScale
 70
     0
300
1:1
140
1.0
141
1.0
290
     1
  0
SCALE
  5
1BE
102
{ACAD_REACTORS
330
10C
102
}
330
10C
100
AcDbScale
 70
     0
300
1:2
140
1.0
141
2.0
290
     0
  0
SCALE
  5
1BF
102
{ACAD_REACTORS
330
10C
102
}
330
10C
100
AcDbScale
 70
     0
300
1:4
140
1.0
141
4.0
290
     0
  0
SCALE
  5
1C0
102
{ACAD_REACTORS
330
10C
102
}
330
10C
100
AcDbScale
 70
     0
300
1:5
140
1.0
141
5.0
290
     0
  0
SCALE
  5
1C1
102
{ACAD_REACTORS
330
10C
102
}
330
10C
100
AcDbScale
 70
     0
300
1:8
140
1.0
141
8.0
290
     0
  0
SCALE
  5
1C2
102
{ACAD_REACTORS
330
10C
102
}
330
10C
100
AcDbScale
 70
     0
300
1:10
140
1.0
141
10.0
290
     0
  0
SCALE
  5
1C3
102
{ACAD_REACTORS
330
10C
102
}
330
10C
100
AcDbScale
 70
     0
300
1:16
140
1.0
141
16.0
290
     0
  0
SCALE
  5
1C4
102
{ACAD_REACTORS
330
10C
102
}
330
10C
100
AcDbScale
 70
     0
300
1:20
140
1.0
141
20.0
290
     0
  0
SCALE
  5
1C5
102
{ACAD_REACTORS
330
10C
102
}
330
10C
100
AcDbScale
 70
     0
300
1:30
140
1.0
141
30.0
290
     0
  0
SCALE
  5
1C6
102
{ACAD_REACTORS
330
10C
102
}
330
10C
100
AcDbScale
 70
     0
300
1:40
140
1.0
141
40.0
290
     0
  0
SCALE
  5
1C7
102
{ACAD_REACTORS
330
10C
102
}
330
10C
100
AcDbScale
 70
     0
300
1:50
140
1.0
141
50.0
290
     0
  0
SCALE
  5
1C8
102
{ACAD_REACTORS
330
10C
102
}
330
10C
100
AcDbScale
 70
     0
300
1:100
140
1.0
141
100.0
290
     0
  0
SCALE
  5
1C9
102
{ACAD_REACTORS
330
10C
102
}
330
10C
100
AcDbScale
 70
     0
300
2:1
140
2.0
141
1.0
290
     0
  0
SCALE
  5
1CA
102
{ACAD_REACTORS
330
10C
102
}
330
10C
100
AcDbScale
 70
     0
300
4:1
140
4.0
141
1.0
290
     0
  0
SCALE
  5
1CB
102
{ACAD_REACTORS
330
10C
102
}
330
10C
100
AcDbScale
 70
     0
300
8:1
140
8.0
141
1.0
290
     0
  0
SCALE
  5
1CC
102
{ACAD_REACTORS
330
10C
102
}
330
10C
100
AcDbScale
 70
     0
300
10:1
140
10.0
141
1.0
290
     0
  0
SCALE
  5
1CD
102
{ACAD_REACTORS
330
10C
102
}
330
10C
100
AcDbScale
 70
     0
300
100:1
140
100.0
141
1.0
290
     0
  0
ACDBSECTIONVIEWSTYLE
  5
2A29
102
{ACAD_XDICTIONARY
360
2AD9
102
}
102
{ACAD_REACTORS
330
2A28
102
}
330
2A28
100
AcDbModelDocViewStyle
 70
     0
  3
Metric50
290
     0
100
AcDbSectionViewStyle
 70
     0
 71
     0
 90
      102
 71
     1
340
11
 40
5.0
340
0
340
0
 40
5.0
300
I, O, Q, S, X, Z
 40
10.0
 90
        0
 40
2.5
 90
        0
 71
     2
340
16
 90
       25
340
16
 90
       50
 40
5.0
 40
2.5
 40
5.0
 71
     3
340
11
 40
5.0
 90
        0
 40
15.0
 90
        1
300
%<\AcVar ViewSectionStartId>%-%<\AcVar ViewSectionEndId>% (%<\AcVar ViewScale \f "%sn">%)
 71
     4
300
ANSI31
 40
1.0
 90
        0
290
     0
290
     0
 90
        6
 40
0.0
 40
1.570796326794896
 40
0.2617993877991494
 40
1.308996938995747
 40
-0.2617993877991494
 40
1.832595714594046
  0
TABLESTYLE
  5
7F
102
{ACAD_XDICTIONARY
360
162
102
}
102
{ACAD_REACTORS
330
7E
102
}
330
7E
100
AcDbTableStyle
  3
Standard
 70
     0
 71
     0
 40
1.5
 41
1.5
280
     0
281
     0
  7
Standard
140
4.5
170
     2
 62
     0
 63
     7
283
     0
274
    -2
284
     1
 64
     0
275
    -2
285
     1
 65
     0
276
    -2
286
     1
 66
     0
277
    -2
287
     1
 67
     0
278
    -2
288
     1
 68
     0
279
    -2
289
     1
 69
     0
  7
Standard
140
6.0
170
     5
 62
     0
 63
     7
283
     0
274
    -2
284
     1
 64
     0
275
    -2
285
     1
 65
     0
276
    -2
286
     1
 66
     0
277
    -2
287
     1
 67
     0
278
    -2
288
     1
 68
     0
279
    -2
289
     1
 69
     0
  7
Standard
140
4.5
170
     5
 62
     0
 63
     7
283
     0
274
    -2
284
     1
 64
     0
275
    -2
285
     1
 65
     0
276
    -2
286
     1
 66
     0
277
    -2
287
     1
 67
     0
278
    -2
288
     1
 68
     0
279
    -2
289
     1
 69
     0
  0
VISUALSTYLE
  5
F5
102
{ACAD_XDICTIONARY
360
2AAF
102
}
102
{ACAD_REACTORS
330
EF
102
}
330
EF
100
AcDbVisualStyle
  2

 70
     4
 71
     0
 72
     2
 73
     1
 90
        0
 40
-0.6
 41
-30.0
 62
     5
 63
     7
 74
     1
 91
        4
 64
     7
 65
   257
 75
     1
175
     1
 42
1.0
 92
        0
 66
   257
 43
1.0
 76
     1
 77
     6
 78
     2
 67
     7
 79
     5
170
     0
171
     0
290
     0
174
     0
 93
        1
 44
0.0
173
     0
291
     0
 45
0.0
1001
ACAD
1000
AcDbSavedByObjectVersion
1070
     0
  0
VISUALSTYLE
  5
F7
102
{ACAD_XDICTIONARY
360
2AB3
102
}
102
{ACAD_REACTORS
330
EF
102
}
330
EF
100
AcDbVisualStyle
  2

 70
     6
 71
     1
 72
     2
 73
     2
 90
        0
 40
-0.6
 41
-30.0
 62
     5
 63
     7
 74
     2
 91
        2
 64
     7
 65
   257
 75
     2
175
     1
 42
40.0
 92
        0
 66
   257
 43
1.0
 76
     1
 77
     6
 78
     2
 67
     7
 79
     3
170
     0
171
     0
290
     0
174
     0
 93
        1
 44
0.0
173
     0
291
     0
 45
0.0
1001
ACAD
1000
AcDbSavedByObjectVersion
1070
     0
  0
VISUALSTYLE
  5
F6
102
{ACAD_XDICTIONARY
360
2AB1
102
}
102
{ACAD_REACTORS
330
EF
102
}
330
EF
100
AcDbVisualStyle
  2

 70
     5
 71
     0
 72
     2
 73
     1
 90
        0
 40
-0.6
 41
-30.0
 62
     5
 63
     7
 74
     1
 91
        4
 64
     7
 65
   257
 75
     1
175
     1
 42
1.0
 92
        0
 66
   257
 43
1.0
 76
     1
 77
     6
 78
     2
 67
     7
 79
     5
170
     0
171
     0
290
     0
174
     0
 93
        1
 44
0.0
173
     0
291
     0
 45
0.0
1001
ACAD
1000
AcDbSavedByObjectVersion
1070
     0
  0
VISUALSTYLE
  5
F4
102
{ACAD_XDICTIONARY
360
2AAD
102
}
102
{ACAD_REACTORS
330
EF
102
}
330
EF
100
AcDbVisualStyle
  2

 70
     7
 71
     1
 72
     0
 73
     1
 90
        0
 40
-0.6
 41
-30.0
 62
     5
 63
     7
 74
     0
 91
        4
 64
     7
 65
   257
 75
     1
175
     1
 42
1.0
 92
        8
 66
     7
 43
1.0
 76
     1
 77
     6
 78
     2
 67
     7
 79
     5
170
     0
171
     0
290
     0
174
     0
 93
        1
 44
0.0
173
     0
291
     1
 45
0.0
1001
ACAD
1000
AcDbSavedByObjectVersion
1070
     0
  0
VISUALSTYLE
  5
FB
102
{ACAD_XDICTIONARY
360
2ABB
102
}
102
{ACAD_REACTORS
330
EF
102
}
330
EF
100
AcDbVisualStyle
  2

 70
    12
 71
     2
 72
     2
 73
     1
 90
        0
 40
-0.6
 41
-30.0
 62
     5
 63
     7
 74
     1
 91
        4
 64
     7
 65
   257
 75
     1
175
     1
 42
1.0
 92
        8
 66
     7
 43
1.0
 76
     1
 77
     6
 78
     2
 67
     7
 79
     5
170
     0
171
     0
290
     0
174
     0
 93
        1
 44
50.0
173
     0
291
     1
 45
0.0
1001
ACAD
1000
AcDbSavedByObjectVersion
1070
     0
  0
VISUALSTYLE
  5
FF
102
{ACAD_XDICTIONARY
360
2AC3
102
}
102
{ACAD_REACTORS
330
EF
102
}
330
EF
100
AcDbVisualStyle
  2

 70
    16
 71
     2
 72
     2
 73
     3
 90
        0
 40
-0.6
 41
-30.0
 62
     5
 63
     8
 74
     1
 91
        4
 64
     7
 65
   257
 75
     1
175
     1
 42
1.0
 92
        8
 66
     8
 43
1.0
 76
     1
 77
     6
 78
     2
 67
     7
 79
     5
170
     0
171
     0
290
     0
174
     0
 93
        1
 44
0.0
173
     0
291
     1
 45
0.0
1001
ACAD
1000
AcDbSavedByObjectVersion
1070
     0
  0
VISUALSTYLE
  5
F8
102
{ACAD_XDICTIONARY
360
2AB5
102
}
102
{ACAD_REACTORS
330
EF
102
}
330
EF
100
AcDbVisualStyle
  2

 70
     9
 71
     3
 72
     2
 73
     1
 90
        0
 40
-0.6
 41
-30.0
 62
     5
 63
     7
 74
     2
 91
        2
 64
     7
 65
   257
 75
     1
175
     1
 42
40.0
 92
        8
 66
     7
 43
1.0
 76
     1
 77
     6
 78
     2
 67
     7
 79
     3
170
     0
171
     0
290
     0
174
     0
 93
        1
 44
0.0
173
     0
291
     0
 45
0.0
1001
ACAD
1000
AcDbSavedByObjectVersion
1070
     0
  0
VISUALSTYLE
  5
FA
102
{ACAD_XDICTIONARY
360
2AB9
102
}
102
{ACAD_REACTORS
330
EF
102
}
330
EF
100
AcDbVisualStyle
  2

 70
    11
 71
     2
 72
     2
 73
     1
 90
        0
 40
-0.6
 41
-30.0
 62
     5
 63
     7
 74
     1
 91
        4
 64
     7
 65
   257
 75
     1
175
     1
 42
1.0
 92
        8
 66
     7
 43
1.0
 76
     1
 77
     6
 78
     2
 67
     7
 79
     5
170
     0
171
     0
290
     0
174
     0
 93
        1
 44
-50.0
173
     0
291
     1
 45
0.0
1001
ACAD
1000
AcDbSavedByObjectVersion
1070
     0
  0
VISUALSTYLE
  5
1E6
102
{ACAD_XDICTIONARY
360
2AC9
102
}
102
{ACAD_REACTORS
330
EF
102
}
330
EF
100
AcDbVisualStyle
  2

 70
    22
 71
     2
 72
     2
 73
     0
 90
        0
 40
-0.6
 41
-30.0
 62
     5
 63
     7
 74
     1
 91
        4
 64
     7
 65
   257
 75
     1
175
     1
 42
1.0
 92
        8
 66
     7
 43
1.0
 76
     1
 77
     6
 78
     2
 67
     7
 79
     5
170
     0
171
     0
290
     0
174
     0
 93
        1
 44
0.0
173
     0
291
     1
 45
0.0
1001
ACAD
1000
AcDbSavedByObjectVersion
1070
     0
  0
VISUALSTYLE
  5
FE
102
{ACAD_XDICTIONARY
360
2AC1
102
}
102
{ACAD_REACTORS
330
EF
102
}
330
EF
100
AcDbVisualStyle
  2

 70
    15
 71
     2
 72
     2
 73
     1
 90
        0
 40
-0.6
 41
-30.0
 62
     5
 63
     7
 74
     1
 91
        4
 64
     7
 65
   257
 75
     1
175
     1
 42
1.0
 92
        8
 66
     7
 43
1.0
 76
     1
 77
     6
 78
     2
 67
     7
 79
     5
170
     0
171
     0
290
     0
174
     0
 93
        1
 44
0.0
173
     0
291
     1
 45
0.0
1001
ACAD
1000
AcDbSavedByObjectVersion
1070
     0
  0
VISUALSTYLE
  5
F0
102
{ACAD_XDICTIONARY
360
2AA5
102
}
102
{ACAD_REACTORS
330
EF
102
}
330
EF
100
AcDbVisualStyle
  2

 70
     0
 71
     2
 72
     1
 73
     1
 90
        2
 40
-0.6
 41
30.0
 62
     5
 63
     7
 74
     0
 91
        4
 64
     7
 65
   257
 75
     1
175
     1
 42
1.0
 92
        8
 66
     7
 43
1.0
 76
     1
 77
     6
 78
     2
 67
     7
 79
     5
170
     0
171
     0
290
     0
174
     0
 93
        1
 44
0.0
173
     0
291
     1
 45
0.0
1001
ACAD
1000
AcDbSavedByObjectVersion
1070
     0
  0
VISUALSTYLE
  5
F1
102
{ACAD_XDICTIONARY
360
2AA7
102
}
102
{ACAD_REACTORS
330
EF
102
}
330
EF
100
AcDbVisualStyle
  2

 70
     1
 71
     2
 72
     1
 73
     1
 90
        2
 40
-0.6
 41
30.0
 62
     5
 63
     7
 74
     1
 91
        4
 64
     7
 65
   257
 75
     1
175
     1
 42
1.0
 92
        0
 66
   257
 43
1.0
 76
     1
 77
     6
 78
     2
 67
     7
 79
     5
170
     0
171
     0
290
     0
174
     0
 93
        1
 44
0.0
173
     0
291
     1
 45
0.0
1001
ACAD
1000
AcDbSavedByObjectVersion
1070
     0
  0
VISUALSTYLE
  5
F2
102
{ACAD_XDICTIONARY
360
2AA9
102
}
102
{ACAD_REACTORS
330
EF
102
}
330
EF
100
AcDbVisualStyle
  2

 70
     2
 71
     2
 72
     2
 73
     1
 90
        2
 40
-0.6
 41
30.0
 62
     5
 63
     7
 74
     0
 91
        4
 64
     7
 65
   257
 75
     1
175
     1
 42
1.0
 92
        0
 66
     7
 43
1.0
 76
     1
 77
     6
 78
     2
 67
     7
 79
     5
170
     0
171
     0
290
     0
174
     0
 93
        1
 44
0.0
173
     0
291
     1
 45
0.0
1001
ACAD
1000
AcDbSavedByObjectVersion
1070
     0
  0
VISUALSTYLE
  5
F3
102
{ACAD_XDICTIONARY
360
2AAB
102
}
102
{ACAD_REACTORS
330
EF
102
}
330
EF
100
AcDbVisualStyle
  2

 70
     3
 71
     2
 72
     2
 73
     1
 90
        2
 40
-0.6
 41
30.0
 62
     5
 63
     7
 74
     1
 91
        4
 64
     7
 65
   257
 75
     1
175
     1
 42
1.0
 92
        0
 66
   257
 43
1.0
 76
     1
 77
     6
 78
     2
 67
     7
 79
     5
170
     0
171
     0
290
     0
174
     0
 93
        1
 44
0.0
173
     0
291
     1
 45
0.0
1001
ACAD
1000
AcDbSavedByObjectVersion
1070
     0
  0
VISUALSTYLE
  5
2A22
102
{ACAD_XDICTIONARY
360
2ACD
102
}
102
{ACAD_REACTORS
330
EF
102
}
330
EF
100
AcDbVisualStyle
  2
Hidden
 70
     6
 71
     1
 72
     2
 73
     2
 90
        0
 40
-0.6
 41
-30.0
 62
     5
 63
     7
 74
     2
 91
        2
 64
     7
 65
   257
 75
     2
175
     1
 42
40.0
 92
        0
 66
   257
 43
1.0
 76
     1
 77
     6
 78
     2
 67
     7
 79
     3
170
     0
171
     0
290
     0
174
     0
 93
        1
 44
0.0
173
     0
291
     0
 45
0.0
1001
ACAD
1000
AcDbSavedByObjectVersion
1070
     0
  0
VISUALSTYLE
  5
1E4
102
{ACAD_XDICTIONARY
360
2AC5
102
}
102
{ACAD_REACTORS
330
EF
102
}
330
EF
100
AcDbVisualStyle
  2

 70
    20
 71
     2
 72
     2
 73
     0
 90
        0
 40
-0.6
 41
-30.0
 62
     5
 63
     7
 74
     1
 91
        4
 64
     7
 65
   257
 75
     1
175
     1
 42
1.0
 92
       10
 66
     7
 43
1.0
 76
     1
 77
     6
 78
     2
 67
     7
 79
     5
170
     0
171
     0
290
     0
174
     0
 93
        1
 44
0.0
173
     0
291
     1
 45
0.0
1001
ACAD
1000
AcDbSavedByObjectVersion
1070
     0
  0
VISUALSTYLE
  5
FD
102
{ACAD_XDICTIONARY
360
2ABF
102
}
102
{ACAD_REACTORS
330
EF
102
}
330
EF
100
AcDbVisualStyle
  2

 70
    14
 71
     2
 72
     2
 73
     1
 90
        0
 40
-0.6
 41
-30.0
 62
     5
 63
     7
 74
     1
 91
        4
 64
     7
 65
   257
 75
     7
175
     7
 42
1.0
 92
        8
 66
     7
 43
1.0
 76
     1
 77
     6
 78
     2
 67
     7
 79
     5
170
     0
171
     0
290
     0
174
     0
 93
        1
 44
0.0
173
     0
291
     1
 45
0.0
1001
ACAD
1000
AcDbSavedByObjectVersion
1070
     0
  0
VISUALSTYLE
  5
1E5
102
{ACAD_XDICTIONARY
360
2AC7
102
}
102
{ACAD_REACTORS
330
EF
102
}
330
EF
100
AcDbVisualStyle
  2

 70
    21
 71
     2
 72
     2
 73
     0
 90
        0
 40
-0.6
 41
-30.0
 62
     5
 63
     7
 74
     1
 91
        4
 64
     7
 65
   257
 75
     1
175
     1
 42
1.0
 92
        9
 66
     7
 43
1.0
 76
     1
 77
     6
 78
     2
 67
     7
 79
     5
170
     0
171
     0
290
     0
174
     0
 93
        1
 44
0.0
173
     0
291
     1
 45
0.0
1001
ACAD
1000
AcDbSavedByObjectVersion
1070
     0
  0
VISUALSTYLE
  5
F9
102
{ACAD_XDICTIONARY
360
2AB7
102
}
102
{ACAD_REACTORS
330
EF
102
}
330
EF
100
AcDbVisualStyle
  2

 70
     8
 71
     2
 72
     2
 73
     1
 90
        0
 40
-0.6
 41
-30.0
 62
     5
 63
     7
 74
     1
 91
        0
 64
     7
 65
   257
 75
     1
175
     1
 42
1.0
 92
        8
 66
     8
 43
1.0
 76
     1
 77
     6
 78
     2
 67
     7
 79
     5
170
     0
171
     0
290
     0
174
     0
 93
       13
 44
0.0
173
     0
291
     0
 45
0.0
1001
ACAD
1000
AcDbSavedByObjectVersion
1070
     0
  0
VISUALSTYLE
  5
2A27
102
{ACAD_XDICTIONARY
360
2AD7
102
}
102
{ACAD_REACTORS
330
EF
102
}
330
EF
100
AcDbVisualStyle
  2
Shaded
 70
    27
 71
     2
 72
     2
 73
     1
 90
        2
 40
-0.6
 41
30.0
 62
     5
 63
     7
 74
     0
 91
        4
 64
     7
 65
   257
 75
     1
175
     1
 42
1.0
 92
        8
 66
   257
 43
1.0
 76
     1
 77
     6
 78
     2
 67
     8
 79
     3
170
     0
171
     0
290
     0
174
     0
 93
        5
 44
0.0
173
     0
291
     0
 45
0.0
1001
ACAD
1000
AcDbSavedByObjectVersion
1070
     0
  0
VISUALSTYLE
  5
2A26
102
{ACAD_XDICTIONARY
360
2AD5
102
}
102
{ACAD_REACTORS
330
EF
102
}
330
EF
100
AcDbVisualStyle
  2
Shaded with edges
 70
    26
 71
     2
 72
     2
 73
     1
 90
        2
 40
-0.6
 41
30.0
 62
     5
 63
     7
 74
     1
 91
        2
 64
     7
 65
   257
 75
     2
175
     1
 42
1.0
 92
        8
 66
   257
 43
1.0
 76
     1
 77
     6
 78
     2
 67
     7
 79
     3
170
     0
171
     0
290
     0
174
     0
 93
        5
 44
0.0
173
     0
291
     0
 45
0.0
1001
ACAD
1000
AcDbSavedByObjectVersion
1070
     0
  0
VISUALSTYLE
  5
2A23
102
{ACAD_XDICTIONARY
360
2ACF
102
}
102
{ACAD_REACTORS
330
EF
102
}
330
EF
100
AcDbVisualStyle
  2
Shades of Gray
 70
    23
 71
     2
 72
     2
 73
     3
 90
        0
 40
-0.6
 41
-30.0
 62
     5
 63
     7
 74
     2
 91
        2
 64
     7
 65
     7
 75
     1
175
     1
 42
40.0
 92
        8
 66
     7
 43
1.0
 76
     1
 77
     6
 78
     2
 67
     7
 79
     3
170
     0
171
     0
290
     0
174
     0
 93
        1
 44
0.0
173
     0
291
     0
 45
0.0
1001
ACAD
1000
AcDbSavedByObjectVersion
1070
     0
  0
VISUALSTYLE
  5
2A24
102
{ACAD_XDICTIONARY
360
2AD1
102
}
102
{ACAD_REACTORS
330
EF
102
}
330
EF
100
AcDbVisualStyle
  2
Sketchy
 70
    24
 71
     1
 72
     2
 73
     2
 90
        0
 40
-0.6
 41
-30.0
 62
     5
 63
     7
 74
     2
 91
        2
 64
     7
 65
     7
 75
     1
175
     1
 42
40.0
 92
       11
 66
     7
 43
1.0
 76
     1
 77
     6
 78
     2
 67
     7
 79
     6
170
     0
171
     0
290
     0
174
     0
 93
        1
 44
0.0
173
     0
291
     0
 45
0.0
1001
ACAD
1000
AcDbSavedByObjectVersion
1070
     0
  0
VISUALSTYLE
  5
FC
102
{ACAD_XDICTIONARY
360
2ABD
102
}
102
{ACAD_REACTORS
330
EF
102
}
330
EF
100
AcDbVisualStyle
  2

 70
    13
 71
     2
 72
     2
 73
     1
 90
        0
 40
-0.6
 41
-30.0
 62
     5
 63
     7
 74
     1
 91
        4
 64
     7
 65
   257
 75
     1
175
     1
 42
1.0
 92
       12
 66
     7
 43
1.0
 76
     1
 77
     6
 78
     2
 67
     7
 79
     5
170
     0
171
     0
290
     0
174
     0
 93
        1
 44
0.0
173
     0
291
     1
 45
0.0
1001
ACAD
1000
AcDbSavedByObjectVersion
1070
     0
  0
VISUALSTYLE
  5
2A21
102
{ACAD_XDICTIONARY
360
2ACB
102
}
102
{ACAD_REACTORS
330
EF
102
}
330
EF
100
AcDbVisualStyle
  2
Wireframe
 70
     5
 71
     0
 72
     2
 73
     0
 90
        0
 40
-0.6
 41
-30.0
 62
     5
 63
     7
 74
     1
 91
        4
 64
     7
 65
   257
 75
     1
175
     1
 42
1.0
 92
        0
 66
   257
 43
1.0
 76
     1
 77
     6
 78
     2
 67
     7
 79
     3
170
     0
171
     0
290
     0
174
     0
 93
        1
 44
0.0
173
     0
291
     0
 45
0.0
1001
ACAD
1000
AcDbSavedByObjectVersion
1070
     0
  0
VISUALSTYLE
  5
2A25
102
{ACAD_XDICTIONARY
360
2AD3
102
}
102
{ACAD_REACTORS
330
EF
102
}
330
EF
100
AcDbVisualStyle
  2
X-Ray
 70
    25
 71
     2
 72
     2
 73
     1
 90
        1
 40
0.5
 41
-30.0
 62
     5
 63
     7
 74
     1
 91
        0
 64
     7
 65
   257
 75
     1
175
     1
 42
1.0
 92
        8
 66
     7
 43
1.0
 76
     1
 77
     6
 78
     2
 67
     7
 79
     3
170
     0
171
     0
290
     0
174
     0
 93
       13
 44
0.0
173
     0
291
     0
 45
0.0
1001
ACAD
1000
AcDbSavedByObjectVersion
1070
     0
  0
DICTIONARYVAR
  5
146
102
{ACAD_REACTORS
330
5E
102
}
330
5E
100
DictionaryVariables
280
     0
  1
1:1
  0
DICTIONARYVAR
  5
145
102
{ACAD_REACTORS
330
5E
102
}
330
5E
100
DictionaryVariables
280
     0
  1
STANDARD
  0
DICTIONARYVAR
  5
84
102
{ACAD_REACTORS
330
5E
102
}
330
5E
100
DictionaryVariables
280
     0
  1
STANDARD
  0
DICTIONARYVAR
  5
2A95
102
{ACAD_REACTORS
330
5E
102
}
330
5E
100
DictionaryVariables
280
     0
  1
Metric50
  0
DICTIONARYVAR
  5
2A96
102
{ACAD_REACTORS
330
5E
102
}
330
5E
100
DictionaryVariables
280
     0
  1
Metric50
  0
DICTIONARYVAR
  5
5F
102
{ACAD_REACTORS
330
5E
102
}
330
5E
100
DictionaryVariables
280
     0
  1
2
  0
DICTIONARYVAR
  5
63
102
{ACAD_REACTORS
330
5E
102
}
330
5E
100
DictionaryVariables
280
     0
  1
1
  0
DICTIONARYVAR
  5
1F7
102
{ACAD_REACTORS
330
5E
102
}
330
5E
100
DictionaryVariables
280
     0
  1
0
  0
DICTIONARYVAR
  5
1AE
102
{ACAD_REACTORS
330
5E
102
}
330
5E
100
DictionaryVariables
280
     0
  1
0
  0
DICTIONARYVAR
  5
1AF
102
{ACAD_REACTORS
330
5E
102
}
330
5E
100
DictionaryVariables
280
     0
  1
0
  0
DICTIONARYVAR
  5
1F5
102
{ACAD_REACTORS
330
5E
102
}
330
5E
100
DictionaryVariables
280
     0
  1
2
  0
DICTIONARYVAR
  5
1F4
102
{ACAD_REACTORS
330
5E
102
}
330
5E
100
DictionaryVariables
280
     0
  1
1
  0
DICTIONARYVAR
  5
2A98
102
{ACAD_REACTORS
330
5E
102
}
330
5E
100
DictionaryVariables
280
     0
  1
80.000000
  0
DICTIONARYVAR
  5
2A97
102
{ACAD_REACTORS
330
5E
102
}
330
5E
100
DictionaryVariables
280
     0
  1
5.000000
  0
DICTIONARYVAR
  5
1F6
102
{ACAD_REACTORS
330
5E
102
}
330
5E
100
DictionaryVariables
280
     0
  1
127
  0
DICTIONARYVAR
  5
2A99
102
{ACAD_REACTORS
330
5E
102
}
330
5E
100
DictionaryVariables
280
     0
  1
2
  0
DICTIONARY
  5
2ADB
330
2A2B
100
AcDbDictionary
280
     1
281
     1
  3
ACAD_XREC_ROUNDTRIP
360
2ADC
  0
DICTIONARY
  5
2A9E
330
22
100
AcDbDictionary
280
     1
281
     1
  3
ACAD_XREC_ROUNDTRIP
360
2A9F
  0
DICTIONARY
  5
2AA1
330
D3
100
AcDbDictionary
280
     1
281
     1
  3
ACAD_XREC_ROUNDTRIP
360
2AA2
  0
DICTIONARY
  5
2AA3
330
D7
100
AcDbDictionary
280
     1
281
     1
  3
ACAD_XREC_ROUNDTRIP
360
2AA4
  0
DICTIONARY
  5
1702
330
ED
100
AcDbDictionary
280
     1
281
     1
  3
ACAD_XREC_ROUNDTRIP
360
1703
  0
DICTIONARY
  5
1700
330
EC
100
AcDbDictionary
280
     1
281
     1
  3
ACAD_XREC_ROUNDTRIP
360
1701
  0
DICTIONARY
  5
173
330
EE
100
AcDbDictionary
280
     1
281
     1
  3
ACAD_XREC_ROUNDTRIP
360
1704
  3
BUMPTILE
360
175
  3
DIFFUSETILE
360
174
  3
OPACITYTILE
360
176
  3
REFLECTIONTILE
360
177
  0
DICTIONARY
  5
2AD9
330
2A29
100
AcDbDictionary
280
     1
281
     1
  3
ACAD_XREC_ROUNDTRIP
360
2ADA
  0
DICTIONARY
  5
162
330
7F
100
AcDbDictionary
280
     1
281
     1
  3
ACAD_ROUNDTRIP_2008_TABLESTYLE_CELLSTYLEMAP
360
2A9B
  3
ACAD_XREC_ROUNDTRIP
360
2AA0
  0
DICTIONARY
  5
2AAF
330
F5
100
AcDbDictionary
280
     1
281
     1
  3
ACAD_XREC_ROUNDTRIP
360
2AB0
  0
DICTIONARY
  5
2AB3
330
F7
100
AcDbDictionary
280
     1
281
     1
  3
ACAD_XREC_ROUNDTRIP
360
2AB4
  0
DICTIONARY
  5
2AB1
330
F6
100
AcDbDictionary
280
     1
281
     1
  3
ACAD_XREC_ROUNDTRIP
360
2AB2
  0
DICTIONARY
  5
2AAD
330
F4
100
AcDbDictionary
280
     1
281
     1
  3
ACAD_XREC_ROUNDTRIP
360
2AAE
  0
DICTIONARY
  5
2ABB
330
FB
100
AcDbDictionary
280
     1
281
     1
  3
ACAD_XREC_ROUNDTRIP
360
2ABC
  0
DICTIONARY
  5
2AC3
330
FF
100
AcDbDictionary
280
     1
281
     1
  3
ACAD_XREC_ROUNDTRIP
360
2AC4
  0
DICTIONARY
  5
2AB5
330
F8
100
AcDbDictionary
280
     1
281
     1
  3
ACAD_XREC_ROUNDTRIP
360
2AB6
  0
DICTIONARY
  5
2AB9
330
FA
100
AcDbDictionary
280
     1
281
     1
  3
ACAD_XREC_ROUNDTRIP
360
2ABA
  0
DICTIONARY
  5
2AC9
330
1E6
100
AcDbDictionary
280
     1
281
     1
  3
ACAD_XREC_ROUNDTRIP
360
2ACA
  0
DICTIONARY
  5
2AC1
330
FE
100
AcDbDictionary
280
     1
281
     1
  3
ACAD_XREC_ROUNDTRIP
360
2AC2
  0
DICTIONARY
  5
2AA5
330
F0
100
AcDbDictionary
280
     1
281
     1
  3
ACAD_XREC_ROUNDTRIP
360
2AA6
  0
DICTIONARY
  5
2AA7
330
F1
100
AcDbDictionary
280
     1
281
     1
  3
ACAD_XREC_ROUNDTRIP
360
2AA8
  0
DICTIONARY
  5
2AA9
330
F2
100
AcDbDictionary
280
     1
281
     1
  3
ACAD_XREC_ROUNDTRIP
360
2AAA
  0
DICTIONARY
  5
2AAB
330
F3
100
AcDbDictionary
280
     1
281
     1
  3
ACAD_XREC_ROUNDTRIP
360
2AAC
  0
DICTIONARY
  5
2ACD
330
2A22
100
AcDbDictionary
280
     1
281
     1
  3
ACAD_XREC_ROUNDTRIP
360
2ACE
  0
DICTIONARY
  5
2AC5
330
1E4
100
AcDbDictionary
280
     1
281
     1
  3
ACAD_XREC_ROUNDTRIP
360
2AC6
  0
DICTIONARY
  5
2ABF
330
FD
100
AcDbDictionary
280
     1
281
     1
  3
ACAD_XREC_ROUNDTRIP
360
2AC0
  0
DICTIONARY
  5
2AC7
330
1E5
100
AcDbDictionary
280
     1
281
     1
  3
ACAD_XREC_ROUNDTRIP
360
2AC8
  0
DICTIONARY
  5
2AB7
330
F9
100
AcDbDictionary
280
     1
281
     1
  3
ACAD_XREC_ROUNDTRIP
360
2AB8
  0
DICTIONARY
  5
2AD7
330
2A27
100
AcDbDictionary
280
     1
281
     1
  3
ACAD_XREC_ROUNDTRIP
360
2AD8
  0
DICTIONARY
  5
2AD5
330
2A26
100
AcDbDictionary
280
     1
281
     1
  3
ACAD_XREC_ROUNDTRIP
360
2AD6
  0
DICTIONARY
  5
2ACF
330
2A23
100
AcDbDictionary
280
     1
281
     1
  3
ACAD_XREC_ROUNDTRIP
360
2AD0
  0
DICTIONARY
  5
2AD1
330
2A24
100
AcDbDictionary
280
     1
281
     1
  3
ACAD_XREC_ROUNDTRIP
360
2AD2
  0
DICTIONARY
  5
2ABD
330
FC
100
AcDbDictionary
280
     1
281
     1
  3
ACAD_XREC_ROUNDTRIP
360
2ABE
  0
DICTIONARY
  5
2ACB
330
2A21
100
AcDbDictionary
280
     1
281
     1
  3
ACAD_XREC_ROUNDTRIP
360
2ACC
  0
DICTIONARY
  5
2AD3
330
2A25
100
AcDbDictionary
280
     1
281
     1
  3
ACAD_XREC_ROUNDTRIP
360
2AD4
  0
XRECORD
  5
2ADC
102
{ACAD_REACTORS
330
2ADB
102
}
330
2ADB
100
AcDbXrecord
280
     1
102
DISPLAYNAME
  1
Metric50
102
FLAGS
 90
        0
  0
XRECORD
  5
2A9F
102
{ACAD_REACTORS
330
2A9E
102
}
330
2A9E
100
AcDbXrecord
280
     1
102
SHADEPLOT
 70
     0
102
SHADEPLOTRESLEVEL
 70
     2
102
SHADEPLOTCUSTOMDPI
 70
   300
  0
XRECORD
  5
2AA2
102
{ACAD_REACTORS
330
2AA1
102
}
330
2AA1
100
AcDbXrecord
280
     1
102
SHADEPLOT
 70
     0
102
SHADEPLOTRESLEVEL
 70
     2
102
SHADEPLOTCUSTOMDPI
 70
   300
  0
XRECORD
  5
2AA4
102
{ACAD_REACTORS
330
2AA3
102
}
330
2AA3
100
AcDbXrecord
280
     1
102
SHADEPLOT
 70
     0
102
SHADEPLOTRESLEVEL
 70
     2
102
SHADEPLOTCUSTOMDPI
 70
   300
  0
XRECORD
  5
1703
102
{ACAD_REACTORS
330
1702
102
}
330
1702
100
AcDbXrecord
280
     1
102
MATERIAL
148
0.0
149
0.0
149
0.0
 93
        0
 94
      127
282
     0
 72
     1
 77
     1
171
     1
175
     1
179
     1
273
     0
  0
XRECORD
  5
1701
102
{ACAD_REACTORS
330
1700
102
}
330
1700
100
AcDbXrecord
280
     1
102
MATERIAL
148
0.0
149
0.0
149
0.0
 93
        0
 94
      127
282
     0
 72
     1
 77
     1
171
     1
175
     1
179
     1
273
     0
  0
XRECORD
  5
1704
102
{ACAD_REACTORS
330
173
102
}
330
173
100
AcDbXrecord
280
     1
102
MATERIAL
148
0.0
149
0.0
149
0.0
 93
        0
 94
      127
282
     0
 72
     1
 77
     1
171
     1
175
     1
179
     1
273
     0
  0
XRECORD
  5
175
102
{ACAD_REACTORS
330
173
102
}
330
173
100
AcDbXrecord
280
     1
270
     1
271
     1
  0
XRECORD
  5
174
102
{ACAD_REACTORS
330
173
102
}
330
173
100
AcDbXrecord
280
     1
270
     1
271
     1
  0
XRECORD
  5
176
102
{ACAD_REACTORS
330
173
102
}
330
173
100
AcDbXrecord
280
     1
270
     1
271
     1
  0
XRECORD
  5
177
102
{ACAD_REACTORS
330
173
102
}
330
173
100
AcDbXrecord
280
     1
270
     1
271
     1
  0
XRECORD
  5
2ADA
102
{ACAD_REACTORS
330
2AD9
102
}
330
2AD9
100
AcDbXrecord
280
     1
102
DISPLAYNAME
  1
Metric50
102
FLAGS
 90
        0
  0
CELLSTYLEMAP
  5
2A9B
102
{ACAD_REACTORS
330
162
102
}
330
162
100
AcDbCellStyleMap
 90
        3
300
CELLSTYLE
  1
TABLEFORMAT_BEGIN
 90
        5
170
     1
 91
        0
 92
    32768
 62
   257
 93
        1
300
CONTENTFORMAT
  1
CONTENTFORMAT_BEGIN
 90
        0
 91
        0
 92
      512
 93
        0
300

 40
0.0
140
1.0
 94
        5
 62
     0
340
11
144
6.0
309
CONTENTFORMAT_END
171
     1
301
MARGIN
  1
CELLMARGIN_BEGIN
 40
1.5
 40
1.5
 40
1.5
 40
1.5
 40
0.18
 40
0.18
309
CELLMARGIN_END
 94
        6
 95
        1
302
GRIDFORMAT
  1
GRIDFORMAT_BEGIN
 90
        0
 91
        1
 62
     0
 92
       -2
340
14
 93
        0
 40
1.125
309
GRIDFORMAT_END
 95
        2
302
GRIDFORMAT
  1
GRIDFORMAT_BEGIN
 90
        0
 91
        1
 62
     0
 92
       -2
340
14
 93
        0
 40
1.125
309
GRIDFORMAT_END
 95
        4
302
GRIDFORMAT
  1
GRIDFORMAT_BEGIN
 90
        0
 91
        1
 62
     0
 92
       -2
340
14
 93
        0
 40
1.125
309
GRIDFORMAT_END
 95
        8
302
GRIDFORMAT
  1
GRIDFORMAT_BEGIN
 90
        0
 91
        1
 62
     0
 92
       -2
340
14
 93
        0
 40
1.125
309
GRIDFORMAT_END
 95
       16
302
GRIDFORMAT
  1
GRIDFORMAT_BEGIN
 90
        0
 91
        1
 62
     0
 92
       -2
340
14
 93
        0
 40
1.125
309
GRIDFORMAT_END
 95
       32
302
GRIDFORMAT
  1
GRIDFORMAT_BEGIN
 90
        0
 91
        1
 62
     0
 92
       -2
340
14
 93
        0
 40
1.125
309
GRIDFORMAT_END
309
TABLEFORMAT_END
  1
CELLSTYLE_BEGIN
 90
        1
 91
        1
300
_TITLE
309
CELLSTYLE_END
300
CELLSTYLE
  1
TABLEFORMAT_BEGIN
 90
        5
170
     1
 91
        0
 92
        0
 62
   257
 93
        1
300
CONTENTFORMAT
  1
CONTENTFORMAT_BEGIN
 90
        0
 91
        0
 92
      512
 93
        0
300

 40
0.0
140
1.0
 94
        5
 62
     0
340
11
144
4.5
309
CONTENTFORMAT_END
171
     1
301
MARGIN
  1
CELLMARGIN_BEGIN
 40
1.5
 40
1.5
 40
1.5
 40
1.5
 40
0.18
 40
0.18
309
CELLMARGIN_END
 94
        6
 95
        1
302
GRIDFORMAT
  1
GRIDFORMAT_BEGIN
 90
        0
 91
        1
 62
     0
 92
       -2
340
14
 93
        0
 40
1.125
309
GRIDFORMAT_END
 95
        2
302
GRIDFORMAT
  1
GRIDFORMAT_BEGIN
 90
        0
 91
        1
 62
     0
 92
       -2
340
14
 93
        0
 40
1.125
309
GRIDFORMAT_END
 95
        4
302
GRIDFORMAT
  1
GRIDFORMAT_BEGIN
 90
        0
 91
        1
 62
     0
 92
       -2
340
14
 93
        0
 40
1.125
309
GRIDFORMAT_END
 95
        8
302
GRIDFORMAT
  1
GRIDFORMAT_BEGIN
 90
        0
 91
        1
 62
     0
 92
       -2
340
14
 93
        0
 40
1.125
309
GRIDFORMAT_END
 95
       16
302
GRIDFORMAT
  1
GRIDFORMAT_BEGIN
 90
        0
 91
        1
 62
     0
 92
       -2
340
14
 93
        0
 40
1.125
309
GRIDFORMAT_END
 95
       32
302
GRIDFORMAT
  1
GRIDFORMAT_BEGIN
 90
        0
 91
        1
 62
     0
 92
       -2
340
14
 93
        0
 40
1.125
309
GRIDFORMAT_END
309
TABLEFORMAT_END
  1
CELLSTYLE_BEGIN
 90
        2
 91
        1
300
_HEADER
309
CELLSTYLE_END
300
CELLSTYLE
  1
TABLEFORMAT_BEGIN
 90
        5
170
     1
 91
        0
 92
        0
 62
   257
 93
        1
300
CONTENTFORMAT
  1
CONTENTFORMAT_BEGIN
 90
        0
 91
        0
 92
      512
 93
        0
300

 40
0.0
140
1.0
 94
        2
 62
     0
340
11
144
4.5
309
CONTENTFORMAT_END
171
     1
301
MARGIN
  1
CELLMARGIN_BEGIN
 40
1.5
 40
1.5
 40
1.5
 40
1.5
 40
0.18
 40
0.18
309
CELLMARGIN_END
 94
        6
 95
        1
302
GRIDFORMAT
  1
GRIDFORMAT_BEGIN
 90
        0
 91
        1
 62
     0
 92
       -2
340
14
 93
        0
 40
1.125
309
GRIDFORMAT_END
 95
        2
302
GRIDFORMAT
  1
GRIDFORMAT_BEGIN
 90
        0
 91
        1
 62
     0
 92
       -2
340
14
 93
        0
 40
1.125
309
GRIDFORMAT_END
 95
        4
302
GRIDFORMAT
  1
GRIDFORMAT_BEGIN
 90
        0
 91
        1
 62
     0
 92
       -2
340
14
 93
        0
 40
1.125
309
GRIDFORMAT_END
 95
        8
302
GRIDFORMAT
  1
GRIDFORMAT_BEGIN
 90
        0
 91
        1
 62
     0
 92
       -2
340
14
 93
        0
 40
1.125
309
GRIDFORMAT_END
 95
       16
302
GRIDFORMAT
  1
GRIDFORMAT_BEGIN
 90
        0
 91
        1
 62
     0
 92
       -2
340
14
 93
        0
 40
1.125
309
GRIDFORMAT_END
 95
       32
302
GRIDFORMAT
  1
GRIDFORMAT_BEGIN
 90
        0
 91
        1
 62
     0
 92
       -2
340
14
 93
        0
 40
1.125
309
GRIDFORMAT_END
309
TABLEFORMAT_END
  1
CELLSTYLE_BEGIN
 90
        3
 91
        2
300
_DATA
309
CELLSTYLE_END
  0
XRECORD
  5
2AA0
102
{ACAD_REACTORS
330
162
102
}
330
162
100
AcDbXrecord
280
     1
102
ACAD_ROUNDTRIP_PRE2007_TABLESTYLE
 90
      512
 91
        0
  1

 92
      512
 93
        0
  2

 94
      512
 95
        0
  3

  0
XRECORD
  5
2AB0
102
{ACAD_REACTORS
330
2AAF
102
}
330
2AAF
100
AcDbXrecord
280
     1
102
RTVSPost2010Prop28
280
     1
102
RTVSPost2010PropOp28
 70
     1
102
RTVSPost2010Prop29
280
     1
102
RTVSPost2010PropOp29
 70
     1
102
RTVSPost2010Prop30
280
     0
102
RTVSPost2010PropOp30
 70
     1
102
RTVSPost2010Prop31
280
     0
102
RTVSPost2010PropOp31
 70
     1
102
RTVSPost2010Prop32
280
     0
102
RTVSPost2010PropOp32
 70
     1
102
RTVSPost2010Prop33
280
     0
102
RTVSPost2010PropOp33
 70
     1
102
RTVSPost2010Prop34
280
     0
102
RTVSPost2010PropOp34
 70
     1
102
RTVSPost2010Prop35
280
     0
102
RTVSPost2010PropOp35
 70
     1
102
RTVSPost2010Prop36
280
     0
102
RTVSPost2010PropOp36
 70
     1
102
RTVSPost2010Prop37
 90
       50
102
RTVSPost2010PropOp37
 70
     1
102
RTVSPost2010Prop38
140
0.0
102
RTVSPost2010PropOp38
 70
     1
102
RTVSPost2010Prop39
140
1.0
102
RTVSPost2010PropOp39
 70
     1
102
RTVSPost2010Prop40
 90
        0
102
RTVSPost2010PropOp40
 70
     1
102
RTVSPost2010Prop41ColorIndex
 90
       18
102
RTVSPost2010Prop41ColorRGB
 90
        0
102
RTVSPost2010PropOp41
 70
     1
102
RTVSPost2010Prop42
 90
       50
102
RTVSPost2010PropOp42
 70
     1
102
RTVSPost2010Prop43
 90
        3
102
RTVSPost2010PropOp43
 70
     1
102
RTVSPost2010Prop44ColorIndex
 90
        5
102
RTVSPost2010Prop44ColorRGB
 90
      255
102
RTVSPost2010PropOp44
 70
     1
102
RTVSPost2010Prop45
280
     0
102
RTVSPost2010PropOp45
 70
     1
102
RTVSPost2010Prop46
 90
       50
102
RTVSPost2010PropOp46
 70
     1
102
RTVSPost2010Prop47
 90
       50
102
RTVSPost2010PropOp47
 70
     1
102
RTVSPost2010Prop48
 90
       50
102
RTVSPost2010PropOp48
 70
     1
102
RTVSPost2010Prop49
280
     0
102
RTVSPost2010PropOp49
 70
     1
102
RTVSPost2010Prop50
 90
       50
102
RTVSPost2010PropOp50
 70
     1
102
RTVSPost2010Prop51ColorIndex
 90
      256
102
RTVSPost2010Prop51ColorRGB
 90
-16777216
102
RTVSPost2010PropOp51
 70
     0
102
RTVSPost2010Prop52
140
1.0
102
RTVSPost2010PropOp52
 70
     0
102
RTVSPost2010Prop53
 90
        2
102
RTVSPost2010PropOp53
 70
     1
102
RTVSPost2010Prop54
  1
strokes_ogs.tif
102
RTVSPost2010PropOp54
 70
     1
102
RTVSPost2010Prop55
280
     0
102
RTVSPost2010PropOp55
 70
     1
102
RTVSPost2010Prop56
140
1.0
102
RTVSPost2010PropOp56
 70
     1
102
RTVSPost2010Prop57
140
1.0
102
RTVSPost2010PropOp57
 70
     1
102
RTVSPropertyOp0
 70
     1
102
RTVSPropertyOp1
 70
     1
102
RTVSPropertyOp2
 70
     1
102
RTVSPropertyOp3
 70
     1
102
RTVSPropertyOp4
 70
     1
102
RTVSPropertyOp5
 70
     1
102
RTVSPropertyOp6
 70
     1
102
RTVSPropertyOp7
 70
     1
102
RTVSPropertyOp8
 70
     1
102
RTVSPropertyOp9
 70
     1
102
RTVSPropertyOp10
 70
     1
102
RTVSPropertyOp11
 70
     1
102
RTVSPropertyOp12
 70
     1
102
RTVSPropertyOp13
 70
     1
102
RTVSPropertyOp14
 70
     1
102
RTVSPropertyOp15
 70
     1
102
RTVSPropertyOp16
 70
     1
102
RTVSPropertyOp17
 70
     1
102
RTVSPropertyOp18
 70
     1
102
RTVSPropertyOp19
 70
     1
102
RTVSPropertyOp20
 70
     1
102
RTVSPropertyOp21
 70
     1
102
RTVSPropertyOp22
 70
     1
102
RTVSPropertyOp23
 70
     1
102
RTVSPropertyOp24
 70
     1
102
RTVSPropertyOp25
 70
     1
102
RTVSPropertyOp26
 70
     1
102
RTVSPropertyOp27
 70
     1
102
RTVSPropertyOp28
 70
     1
102
RTVSPropertyOp29
 70
     1
102
RTVSPropertyOp30
 70
     1
102
RTVSPropertyOp31
 70
     1
102
RTVSPropertyOp32
 70
     1
102
RTVSPropertyOp33
 70
     1
102
RTVSPropertyOp34
 70
     1
102
RTVSPropertyOp35
 70
     1
102
RTVSPropertyOp36
 70
     1
102
RTVSPropertyOp37
 70
     1
102
RTVSPropertyOp38
 70
     1
102
RTVSPropertyOp39
 70
     1
102
RTVSPropertyOp40
 70
     1
102
RTVSPropertyOp41
 70
     1
102
RTVSPropertyOp42
 70
     1
102
RTVSPropertyOp43
 70
     1
102
RTVSPropertyOp44
 70
     1
102
RTVSPropertyOp45
 70
     1
102
RTVSPropertyOp46
 70
     1
102
RTVSPropertyOp47
 70
     1
102
RTVSPropertyOp48
 70
     1
102
RTVSPropertyOp49
 70
     1
102
RTVSPropertyOp50
 70
     1
102
RTVSPropertyOp51
 70
     0
102
RTVSPropertyOp52
 70
     0
102
RTVSPropertyOp53
 70
     1
102
RTVSPropertyOp54
 70
     1
102
RTVSPropertyOp55
 70
     1
102
RTVSPropertyOp56
 70
     1
102
RTVSPropertyOp57
 70
     1
102
RTVSPropertyOp58
 70
     1
102
RTVSPropertyOp59
 70
     1
102
RTVSPropertyOp60
 70
     1
102
RTVSPropertyOp61
 70
     1
102
RTVSPropertyOp62
 70
     1
  0
XRECORD
  5
2AB4
102
{ACAD_REACTORS
330
2AB3
102
}
330
2AB3
100
AcDbXrecord
280
     1
102
RTVSPost2010Prop28
280
     0
102
RTVSPost2010PropOp28
 70
     1
102
RTVSPost2010Prop29
280
     1
102
RTVSPost2010PropOp29
 70
     1
102
RTVSPost2010Prop30
280
     1
102
RTVSPost2010PropOp30
 70
     1
102
RTVSPost2010Prop31
280
     0
102
RTVSPost2010PropOp31
 70
     1
102
RTVSPost2010Prop32
280
     0
102
RTVSPost2010PropOp32
 70
     1
102
RTVSPost2010Prop33
280
     0
102
RTVSPost2010PropOp33
 70
     1
102
RTVSPost2010Prop34
280
     0
102
RTVSPost2010PropOp34
 70
     1
102
RTVSPost2010Prop35
280
     0
102
RTVSPost2010PropOp35
 70
     1
102
RTVSPost2010Prop36
280
     0
102
RTVSPost2010PropOp36
 70
     1
102
RTVSPost2010Prop37
 90
       50
102
RTVSPost2010PropOp37
 70
     1
102
RTVSPost2010Prop38
140
0.0
102
RTVSPost2010PropOp38
 70
     1
102
RTVSPost2010Prop39
140
1.0
102
RTVSPost2010PropOp39
 70
     1
102
RTVSPost2010Prop40
 90
        0
102
RTVSPost2010PropOp40
 70
     1
102
RTVSPost2010Prop41ColorIndex
 90
       18
102
RTVSPost2010Prop41ColorRGB
 90
        0
102
RTVSPost2010PropOp41
 70
     1
102
RTVSPost2010Prop42
 90
       50
102
RTVSPost2010PropOp42
 70
     1
102
RTVSPost2010Prop43
 90
        3
102
RTVSPost2010PropOp43
 70
     1
102
RTVSPost2010Prop44ColorIndex
 90
        5
102
RTVSPost2010Prop44ColorRGB
 90
      255
102
RTVSPost2010PropOp44
 70
     1
102
RTVSPost2010Prop45
280
     0
102
RTVSPost2010PropOp45
 70
     1
102
RTVSPost2010Prop46
 90
       50
102
RTVSPost2010PropOp46
 70
     1
102
RTVSPost2010Prop47
 90
       50
102
RTVSPost2010PropOp47
 70
     1
102
RTVSPost2010Prop48
 90
       50
102
RTVSPost2010PropOp48
 70
     1
102
RTVSPost2010Prop49
280
     0
102
RTVSPost2010PropOp49
 70
     1
102
RTVSPost2010Prop50
 90
       50
102
RTVSPost2010PropOp50
 70
     1
102
RTVSPost2010Prop51ColorIndex
 90
      256
102
RTVSPost2010Prop51ColorRGB
 90
-16777216
102
RTVSPost2010PropOp51
 70
     0
102
RTVSPost2010Prop52
140
1.0
102
RTVSPost2010PropOp52
 70
     0
102
RTVSPost2010Prop53
 90
        2
102
RTVSPost2010PropOp53
 70
     1
102
RTVSPost2010Prop54
  1
strokes_ogs.tif
102
RTVSPost2010PropOp54
 70
     1
102
RTVSPost2010Prop55
280
     0
102
RTVSPost2010PropOp55
 70
     1
102
RTVSPost2010Prop56
140
1.0
102
RTVSPost2010PropOp56
 70
     1
102
RTVSPost2010Prop57
140
1.0
102
RTVSPost2010PropOp57
 70
     1
102
RTVSPropertyOp0
 70
     1
102
RTVSPropertyOp1
 70
     1
102
RTVSPropertyOp2
 70
     1
102
RTVSPropertyOp3
 70
     1
102
RTVSPropertyOp4
 70
     1
102
RTVSPropertyOp5
 70
     1
102
RTVSPropertyOp6
 70
     1
102
RTVSPropertyOp7
 70
     1
102
RTVSPropertyOp8
 70
     1
102
RTVSPropertyOp9
 70
     1
102
RTVSPropertyOp10
 70
     1
102
RTVSPropertyOp11
 70
     1
102
RTVSPropertyOp12
 70
     1
102
RTVSPropertyOp13
 70
     1
102
RTVSPropertyOp14
 70
     1
102
RTVSPropertyOp15
 70
     1
102
RTVSPropertyOp16
 70
     1
102
RTVSPropertyOp17
 70
     1
102
RTVSPropertyOp18
 70
     1
102
RTVSPropertyOp19
 70
     1
102
RTVSPropertyOp20
 70
     1
102
RTVSPropertyOp21
 70
     1
102
RTVSPropertyOp22
 70
     1
102
RTVSPropertyOp23
 70
     1
102
RTVSPropertyOp24
 70
     1
102
RTVSPropertyOp25
 70
     1
102
RTVSPropertyOp26
 70
     1
102
RTVSPropertyOp27
 70
     1
102
RTVSPropertyOp28
 70
     1
102
RTVSPropertyOp29
 70
     1
102
RTVSPropertyOp30
 70
     1
102
RTVSPropertyOp31
 70
     1
102
RTVSPropertyOp32
 70
     1
102
RTVSPropertyOp33
 70
     1
102
RTVSPropertyOp34
 70
     1
102
RTVSPropertyOp35
 70
     1
102
RTVSPropertyOp36
 70
     1
102
RTVSPropertyOp37
 70
     1
102
RTVSPropertyOp38
 70
     1
102
RTVSPropertyOp39
 70
     1
102
RTVSPropertyOp40
 70
     1
102
RTVSPropertyOp41
 70
     1
102
RTVSPropertyOp42
 70
     1
102
RTVSPropertyOp43
 70
     1
102
RTVSPropertyOp44
 70
     1
102
RTVSPropertyOp45
 70
     1
102
RTVSPropertyOp46
 70
     1
102
RTVSPropertyOp47
 70
     1
102
RTVSPropertyOp48
 70
     1
102
RTVSPropertyOp49
 70
     1
102
RTVSPropertyOp50
 70
     1
102
RTVSPropertyOp51
 70
     0
102
RTVSPropertyOp52
 70
     0
102
RTVSPropertyOp53
 70
     1
102
RTVSPropertyOp54
 70
     1
102
RTVSPropertyOp55
 70
     1
102
RTVSPropertyOp56
 70
     1
102
RTVSPropertyOp57
 70
     1
102
RTVSPropertyOp58
 70
     1
102
RTVSPropertyOp59
 70
     1
102
RTVSPropertyOp60
 70
     1
102
RTVSPropertyOp61
 70
     1
102
RTVSPropertyOp62
 70
     1
  0
XRECORD
  5
2AB2
102
{ACAD_REACTORS
330
2AB1
102
}
330
2AB1
100
AcDbXrecord
280
     1
102
RTVSPost2010Prop28
280
     0
102
RTVSPost2010PropOp28
 70
     1
102
RTVSPost2010Prop29
280
     1
102
RTVSPost2010PropOp29
 70
     1
102
RTVSPost2010Prop30
280
     1
102
RTVSPost2010PropOp30
 70
     1
102
RTVSPost2010Prop31
280
     0
102
RTVSPost2010PropOp31
 70
     1
102
RTVSPost2010Prop32
280
     0
102
RTVSPost2010PropOp32
 70
     1
102
RTVSPost2010Prop33
280
     0
102
RTVSPost2010PropOp33
 70
     1
102
RTVSPost2010Prop34
280
     0
102
RTVSPost2010PropOp34
 70
     1
102
RTVSPost2010Prop35
280
     0
102
RTVSPost2010PropOp35
 70
     1
102
RTVSPost2010Prop36
280
     0
102
RTVSPost2010PropOp36
 70
     1
102
RTVSPost2010Prop37
 90
       50
102
RTVSPost2010PropOp37
 70
     1
102
RTVSPost2010Prop38
140
0.0
102
RTVSPost2010PropOp38
 70
     1
102
RTVSPost2010Prop39
140
1.0
102
RTVSPost2010PropOp39
 70
     1
102
RTVSPost2010Prop40
 90
        0
102
RTVSPost2010PropOp40
 70
     1
102
RTVSPost2010Prop41ColorIndex
 90
       18
102
RTVSPost2010Prop41ColorRGB
 90
        0
102
RTVSPost2010PropOp41
 70
     1
102
RTVSPost2010Prop42
 90
       50
102
RTVSPost2010PropOp42
 70
     1
102
RTVSPost2010Prop43
 90
        3
102
RTVSPost2010PropOp43
 70
     1
102
RTVSPost2010Prop44ColorIndex
 90
        5
102
RTVSPost2010Prop44ColorRGB
 90
      255
102
RTVSPost2010PropOp44
 70
     1
102
RTVSPost2010Prop45
280
     0
102
RTVSPost2010PropOp45
 70
     1
102
RTVSPost2010Prop46
 90
       50
102
RTVSPost2010PropOp46
 70
     1
102
RTVSPost2010Prop47
 90
       50
102
RTVSPost2010PropOp47
 70
     1
102
RTVSPost2010Prop48
 90
       50
102
RTVSPost2010PropOp48
 70
     1
102
RTVSPost2010Prop49
280
     0
102
RTVSPost2010PropOp49
 70
     1
102
RTVSPost2010Prop50
 90
       50
102
RTVSPost2010PropOp50
 70
     1
102
RTVSPost2010Prop51ColorIndex
 90
      256
102
RTVSPost2010Prop51ColorRGB
 90
-16777216
102
RTVSPost2010PropOp51
 70
     0
102
RTVSPost2010Prop52
140
1.0
102
RTVSPost2010PropOp52
 70
     0
102
RTVSPost2010Prop53
 90
        2
102
RTVSPost2010PropOp53
 70
     1
102
RTVSPost2010Prop54
  1
strokes_ogs.tif
102
RTVSPost2010PropOp54
 70
     1
102
RTVSPost2010Prop55
280
     0
102
RTVSPost2010PropOp55
 70
     1
102
RTVSPost2010Prop56
140
1.0
102
RTVSPost2010PropOp56
 70
     1
102
RTVSPost2010Prop57
140
1.0
102
RTVSPost2010PropOp57
 70
     1
102
RTVSPropertyOp0
 70
     1
102
RTVSPropertyOp1
 70
     1
102
RTVSPropertyOp2
 70
     1
102
RTVSPropertyOp3
 70
     1
102
RTVSPropertyOp4
 70
     1
102
RTVSPropertyOp5
 70
     1
102
RTVSPropertyOp6
 70
     1
102
RTVSPropertyOp7
 70
     1
102
RTVSPropertyOp8
 70
     1
102
RTVSPropertyOp9
 70
     1
102
RTVSPropertyOp10
 70
     1
102
RTVSPropertyOp11
 70
     1
102
RTVSPropertyOp12
 70
     1
102
RTVSPropertyOp13
 70
     1
102
RTVSPropertyOp14
 70
     1
102
RTVSPropertyOp15
 70
     1
102
RTVSPropertyOp16
 70
     1
102
RTVSPropertyOp17
 70
     1
102
RTVSPropertyOp18
 70
     1
102
RTVSPropertyOp19
 70
     1
102
RTVSPropertyOp20
 70
     1
102
RTVSPropertyOp21
 70
     1
102
RTVSPropertyOp22
 70
     1
102
RTVSPropertyOp23
 70
     1
102
RTVSPropertyOp24
 70
     1
102
RTVSPropertyOp25
 70
     1
102
RTVSPropertyOp26
 70
     1
102
RTVSPropertyOp27
 70
     1
102
RTVSPropertyOp28
 70
     1
102
RTVSPropertyOp29
 70
     1
102
RTVSPropertyOp30
 70
     1
102
RTVSPropertyOp31
 70
     1
102
RTVSPropertyOp32
 70
     1
102
RTVSPropertyOp33
 70
     1
102
RTVSPropertyOp34
 70
     1
102
RTVSPropertyOp35
 70
     1
102
RTVSPropertyOp36
 70
     1
102
RTVSPropertyOp37
 70
     1
102
RTVSPropertyOp38
 70
     1
102
RTVSPropertyOp39
 70
     1
102
RTVSPropertyOp40
 70
     1
102
RTVSPropertyOp41
 70
     1
102
RTVSPropertyOp42
 70
     1
102
RTVSPropertyOp43
 70
     1
102
RTVSPropertyOp44
 70
     1
102
RTVSPropertyOp45
 70
     1
102
RTVSPropertyOp46
 70
     1
102
RTVSPropertyOp47
 70
     1
102
RTVSPropertyOp48
 70
     1
102
RTVSPropertyOp49
 70
     1
102
RTVSPropertyOp50
 70
     1
102
RTVSPropertyOp51
 70
     0
102
RTVSPropertyOp52
 70
     0
102
RTVSPropertyOp53
 70
     1
102
RTVSPropertyOp54
 70
     1
102
RTVSPropertyOp55
 70
     1
102
RTVSPropertyOp56
 70
     1
102
RTVSPropertyOp57
 70
     1
102
RTVSPropertyOp58
 70
     1
102
RTVSPropertyOp59
 70
     1
102
RTVSPropertyOp60
 70
     1
102
RTVSPropertyOp61
 70
     1
102
RTVSPropertyOp62
 70
     1
  0
XRECORD
  5
2AAE
102
{ACAD_REACTORS
330
2AAD
102
}
330
2AAD
100
AcDbXrecord
280
     1
102
RTVSPost2010Prop28
280
     0
102
RTVSPost2010PropOp28
 70
     1
102
RTVSPost2010Prop29
280
     1
102
RTVSPost2010PropOp29
 70
     1
102
RTVSPost2010Prop30
280
     1
102
RTVSPost2010PropOp30
 70
     1
102
RTVSPost2010Prop31
280
     0
102
RTVSPost2010PropOp31
 70
     1
102
RTVSPost2010Prop32
280
     0
102
RTVSPost2010PropOp32
 70
     1
102
RTVSPost2010Prop33
280
     0
102
RTVSPost2010PropOp33
 70
     1
102
RTVSPost2010Prop34
280
     0
102
RTVSPost2010PropOp34
 70
     1
102
RTVSPost2010Prop35
280
     0
102
RTVSPost2010PropOp35
 70
     1
102
RTVSPost2010Prop36
280
     0
102
RTVSPost2010PropOp36
 70
     1
102
RTVSPost2010Prop37
 90
       50
102
RTVSPost2010PropOp37
 70
     1
102
RTVSPost2010Prop38
140
0.0
102
RTVSPost2010PropOp38
 70
     1
102
RTVSPost2010Prop39
140
1.0
102
RTVSPost2010PropOp39
 70
     1
102
RTVSPost2010Prop40
 90
        0
102
RTVSPost2010PropOp40
 70
     1
102
RTVSPost2010Prop41ColorIndex
 90
       18
102
RTVSPost2010Prop41ColorRGB
 90
        0
102
RTVSPost2010PropOp41
 70
     1
102
RTVSPost2010Prop42
 90
       50
102
RTVSPost2010PropOp42
 70
     1
102
RTVSPost2010Prop43
 90
        3
102
RTVSPost2010PropOp43
 70
     1
102
RTVSPost2010Prop44ColorIndex
 90
        5
102
RTVSPost2010Prop44ColorRGB
 90
      255
102
RTVSPost2010PropOp44
 70
     1
102
RTVSPost2010Prop45
280
     0
102
RTVSPost2010PropOp45
 70
     1
102
RTVSPost2010Prop46
 90
       50
102
RTVSPost2010PropOp46
 70
     1
102
RTVSPost2010Prop47
 90
       50
102
RTVSPost2010PropOp47
 70
     1
102
RTVSPost2010Prop48
 90
       50
102
RTVSPost2010PropOp48
 70
     1
102
RTVSPost2010Prop49
280
     0
102
RTVSPost2010PropOp49
 70
     1
102
RTVSPost2010Prop50
 90
       50
102
RTVSPost2010PropOp50
 70
     1
102
RTVSPost2010Prop51ColorIndex
 90
      256
102
RTVSPost2010Prop51ColorRGB
 90
-16777216
102
RTVSPost2010PropOp51
 70
     0
102
RTVSPost2010Prop52
140
1.0
102
RTVSPost2010PropOp52
 70
     0
102
RTVSPost2010Prop53
 90
        2
102
RTVSPost2010PropOp53
 70
     1
102
RTVSPost2010Prop54
  1
strokes_ogs.tif
102
RTVSPost2010PropOp54
 70
     1
102
RTVSPost2010Prop55
280
     0
102
RTVSPost2010PropOp55
 70
     1
102
RTVSPost2010Prop56
140
1.0
102
RTVSPost2010PropOp56
 70
     1
102
RTVSPost2010Prop57
140
1.0
102
RTVSPost2010PropOp57
 70
     1
102
RTVSPropertyOp0
 70
     1
102
RTVSPropertyOp1
 70
     1
102
RTVSPropertyOp2
 70
     1
102
RTVSPropertyOp3
 70
     1
102
RTVSPropertyOp4
 70
     1
102
RTVSPropertyOp5
 70
     1
102
RTVSPropertyOp6
 70
     1
102
RTVSPropertyOp7
 70
     1
102
RTVSPropertyOp8
 70
     1
102
RTVSPropertyOp9
 70
     1
102
RTVSPropertyOp10
 70
     1
102
RTVSPropertyOp11
 70
     1
102
RTVSPropertyOp12
 70
     1
102
RTVSPropertyOp13
 70
     1
102
RTVSPropertyOp14
 70
     1
102
RTVSPropertyOp15
 70
     1
102
RTVSPropertyOp16
 70
     1
102
RTVSPropertyOp17
 70
     1
102
RTVSPropertyOp18
 70
     1
102
RTVSPropertyOp19
 70
     1
102
RTVSPropertyOp20
 70
     1
102
RTVSPropertyOp21
 70
     1
102
RTVSPropertyOp22
 70
     1
102
RTVSPropertyOp23
 70
     1
102
RTVSPropertyOp24
 70
     1
102
RTVSPropertyOp25
 70
     1
102
RTVSPropertyOp26
 70
     1
102
RTVSPropertyOp27
 70
     1
102
RTVSPropertyOp28
 70
     1
102
RTVSPropertyOp29
 70
     1
102
RTVSPropertyOp30
 70
     1
102
RTVSPropertyOp31
 70
     1
102
RTVSPropertyOp32
 70
     1
102
RTVSPropertyOp33
 70
     1
102
RTVSPropertyOp34
 70
     1
102
RTVSPropertyOp35
 70
     1
102
RTVSPropertyOp36
 70
     1
102
RTVSPropertyOp37
 70
     1
102
RTVSPropertyOp38
 70
     1
102
RTVSPropertyOp39
 70
     1
102
RTVSPropertyOp40
 70
     1
102
RTVSPropertyOp41
 70
     1
102
RTVSPropertyOp42
 70
     1
102
RTVSPropertyOp43
 70
     1
102
RTVSPropertyOp44
 70
     1
102
RTVSPropertyOp45
 70
     1
102
RTVSPropertyOp46
 70
     1
102
RTVSPropertyOp47
 70
     1
102
RTVSPropertyOp48
 70
     1
102
RTVSPropertyOp49
 70
     1
102
RTVSPropertyOp50
 70
     1
102
RTVSPropertyOp51
 70
     0
102
RTVSPropertyOp52
 70
     0
102
RTVSPropertyOp53
 70
     1
102
RTVSPropertyOp54
 70
     1
102
RTVSPropertyOp55
 70
     1
102
RTVSPropertyOp56
 70
     1
102
RTVSPropertyOp57
 70
     1
102
RTVSPropertyOp58
 70
     1
102
RTVSPropertyOp59
 70
     1
102
RTVSPropertyOp60
 70
     1
102
RTVSPropertyOp61
 70
     1
102
RTVSPropertyOp62
 70
     1
  0
XRECORD
  5
2ABC
102
{ACAD_REACTORS
330
2ABB
102
}
330
2ABB
100
AcDbXrecord
280
     1
102
RTVSPost2010Prop28
280
     0
102
RTVSPost2010PropOp28
 70
     1
102
RTVSPost2010Prop29
280
     1
102
RTVSPost2010PropOp29
 70
     1
102
RTVSPost2010Prop30
280
     1
102
RTVSPost2010PropOp30
 70
     1
102
RTVSPost2010Prop31
280
     0
102
RTVSPost2010PropOp31
 70
     1
102
RTVSPost2010Prop32
280
     0
102
RTVSPost2010PropOp32
 70
     1
102
RTVSPost2010Prop33
280
     0
102
RTVSPost2010PropOp33
 70
     1
102
RTVSPost2010Prop34
280
     0
102
RTVSPost2010PropOp34
 70
     1
102
RTVSPost2010Prop35
280
     0
102
RTVSPost2010PropOp35
 70
     1
102
RTVSPost2010Prop36
280
     0
102
RTVSPost2010PropOp36
 70
     1
102
RTVSPost2010Prop37
 90
       50
102
RTVSPost2010PropOp37
 70
     1
102
RTVSPost2010Prop38
140
0.0
102
RTVSPost2010PropOp38
 70
     1
102
RTVSPost2010Prop39
140
1.0
102
RTVSPost2010PropOp39
 70
     1
102
RTVSPost2010Prop40
 90
        0
102
RTVSPost2010PropOp40
 70
     1
102
RTVSPost2010Prop41ColorIndex
 90
       18
102
RTVSPost2010Prop41ColorRGB
 90
        0
102
RTVSPost2010PropOp41
 70
     1
102
RTVSPost2010Prop42
 90
       50
102
RTVSPost2010PropOp42
 70
     1
102
RTVSPost2010Prop43
 90
        3
102
RTVSPost2010PropOp43
 70
     1
102
RTVSPost2010Prop44ColorIndex
 90
        5
102
RTVSPost2010Prop44ColorRGB
 90
      255
102
RTVSPost2010PropOp44
 70
     1
102
RTVSPost2010Prop45
280
     0
102
RTVSPost2010PropOp45
 70
     1
102
RTVSPost2010Prop46
 90
       50
102
RTVSPost2010PropOp46
 70
     1
102
RTVSPost2010Prop47
 90
       50
102
RTVSPost2010PropOp47
 70
     1
102
RTVSPost2010Prop48
 90
       50
102
RTVSPost2010PropOp48
 70
     1
102
RTVSPost2010Prop49
280
     0
102
RTVSPost2010PropOp49
 70
     1
102
RTVSPost2010Prop50
 90
       50
102
RTVSPost2010PropOp50
 70
     1
102
RTVSPost2010Prop51ColorIndex
 90
      256
102
RTVSPost2010Prop51ColorRGB
 90
-16777216
102
RTVSPost2010PropOp51
 70
     0
102
RTVSPost2010Prop52
140
1.0
102
RTVSPost2010PropOp52
 70
     0
102
RTVSPost2010Prop53
 90
        2
102
RTVSPost2010PropOp53
 70
     1
102
RTVSPost2010Prop54
  1
strokes_ogs.tif
102
RTVSPost2010PropOp54
 70
     1
102
RTVSPost2010Prop55
280
     0
102
RTVSPost2010PropOp55
 70
     1
102
RTVSPost2010Prop56
140
1.0
102
RTVSPost2010PropOp56
 70
     1
102
RTVSPost2010Prop57
140
1.0
102
RTVSPost2010PropOp57
 70
     1
102
RTVSPropertyOp0
 70
     1
102
RTVSPropertyOp1
 70
     1
102
RTVSPropertyOp2
 70
     1
102
RTVSPropertyOp3
 70
     1
102
RTVSPropertyOp4
 70
     1
102
RTVSPropertyOp5
 70
     1
102
RTVSPropertyOp6
 70
     1
102
RTVSPropertyOp7
 70
     1
102
RTVSPropertyOp8
 70
     1
102
RTVSPropertyOp9
 70
     1
102
RTVSPropertyOp10
 70
     1
102
RTVSPropertyOp11
 70
     1
102
RTVSPropertyOp12
 70
     1
102
RTVSPropertyOp13
 70
     1
102
RTVSPropertyOp14
 70
     1
102
RTVSPropertyOp15
 70
     1
102
RTVSPropertyOp16
 70
     1
102
RTVSPropertyOp17
 70
     1
102
RTVSPropertyOp18
 70
     1
102
RTVSPropertyOp19
 70
     1
102
RTVSPropertyOp20
 70
     1
102
RTVSPropertyOp21
 70
     1
102
RTVSPropertyOp22
 70
     1
102
RTVSPropertyOp23
 70
     1
102
RTVSPropertyOp24
 70
     1
102
RTVSPropertyOp25
 70
     1
102
RTVSPropertyOp26
 70
     1
102
RTVSPropertyOp27
 70
     1
102
RTVSPropertyOp28
 70
     1
102
RTVSPropertyOp29
 70
     1
102
RTVSPropertyOp30
 70
     1
102
RTVSPropertyOp31
 70
     1
102
RTVSPropertyOp32
 70
     1
102
RTVSPropertyOp33
 70
     1
102
RTVSPropertyOp34
 70
     1
102
RTVSPropertyOp35
 70
     1
102
RTVSPropertyOp36
 70
     1
102
RTVSPropertyOp37
 70
     1
102
RTVSPropertyOp38
 70
     1
102
RTVSPropertyOp39
 70
     1
102
RTVSPropertyOp40
 70
     1
102
RTVSPropertyOp41
 70
     1
102
RTVSPropertyOp42
 70
     1
102
RTVSPropertyOp43
 70
     1
102
RTVSPropertyOp44
 70
     1
102
RTVSPropertyOp45
 70
     1
102
RTVSPropertyOp46
 70
     1
102
RTVSPropertyOp47
 70
     1
102
RTVSPropertyOp48
 70
     1
102
RTVSPropertyOp49
 70
     1
102
RTVSPropertyOp50
 70
     1
102
RTVSPropertyOp51
 70
     0
102
RTVSPropertyOp52
 70
     0
102
RTVSPropertyOp53
 70
     1
102
RTVSPropertyOp54
 70
     1
102
RTVSPropertyOp55
 70
     1
102
RTVSPropertyOp56
 70
     1
102
RTVSPropertyOp57
 70
     1
102
RTVSPropertyOp58
 70
     1
102
RTVSPropertyOp59
 70
     1
102
RTVSPropertyOp60
 70
     1
102
RTVSPropertyOp61
 70
     1
102
RTVSPropertyOp62
 70
     1
  0
XRECORD
  5
2AC4
102
{ACAD_REACTORS
330
2AC3
102
}
330
2AC3
100
AcDbXrecord
280
     1
102
RTVSPost2010Prop28
280
     0
102
RTVSPost2010PropOp28
 70
     1
102
RTVSPost2010Prop29
280
     1
102
RTVSPost2010PropOp29
 70
     1
102
RTVSPost2010Prop30
280
     1
102
RTVSPost2010PropOp30
 70
     1
102
RTVSPost2010Prop31
280
     0
102
RTVSPost2010PropOp31
 70
     1
102
RTVSPost2010Prop32
280
     0
102
RTVSPost2010PropOp32
 70
     1
102
RTVSPost2010Prop33
280
     0
102
RTVSPost2010PropOp33
 70
     1
102
RTVSPost2010Prop34
280
     0
102
RTVSPost2010PropOp34
 70
     1
102
RTVSPost2010Prop35
280
     0
102
RTVSPost2010PropOp35
 70
     1
102
RTVSPost2010Prop36
280
     0
102
RTVSPost2010PropOp36
 70
     1
102
RTVSPost2010Prop37
 90
       50
102
RTVSPost2010PropOp37
 70
     1
102
RTVSPost2010Prop38
140
0.0
102
RTVSPost2010PropOp38
 70
     1
102
RTVSPost2010Prop39
140
1.0
102
RTVSPost2010PropOp39
 70
     1
102
RTVSPost2010Prop40
 90
        0
102
RTVSPost2010PropOp40
 70
     1
102
RTVSPost2010Prop41ColorIndex
 90
       18
102
RTVSPost2010Prop41ColorRGB
 90
        0
102
RTVSPost2010PropOp41
 70
     1
102
RTVSPost2010Prop42
 90
       50
102
RTVSPost2010PropOp42
 70
     1
102
RTVSPost2010Prop43
 90
        3
102
RTVSPost2010PropOp43
 70
     1
102
RTVSPost2010Prop44ColorIndex
 90
        5
102
RTVSPost2010Prop44ColorRGB
 90
      255
102
RTVSPost2010PropOp44
 70
     1
102
RTVSPost2010Prop45
280
     0
102
RTVSPost2010PropOp45
 70
     1
102
RTVSPost2010Prop46
 90
       50
102
RTVSPost2010PropOp46
 70
     1
102
RTVSPost2010Prop47
 90
       50
102
RTVSPost2010PropOp47
 70
     1
102
RTVSPost2010Prop48
 90
       50
102
RTVSPost2010PropOp48
 70
     1
102
RTVSPost2010Prop49
280
     0
102
RTVSPost2010PropOp49
 70
     1
102
RTVSPost2010Prop50
 90
       50
102
RTVSPost2010PropOp50
 70
     1
102
RTVSPost2010Prop51ColorIndex
 90
      256
102
RTVSPost2010Prop51ColorRGB
 90
-16777216
102
RTVSPost2010PropOp51
 70
     0
102
RTVSPost2010Prop52
140
1.0
102
RTVSPost2010PropOp52
 70
     0
102
RTVSPost2010Prop53
 90
        2
102
RTVSPost2010PropOp53
 70
     1
102
RTVSPost2010Prop54
  1
strokes_ogs.tif
102
RTVSPost2010PropOp54
 70
     1
102
RTVSPost2010Prop55
280
     0
102
RTVSPost2010PropOp55
 70
     1
102
RTVSPost2010Prop56
140
1.0
102
RTVSPost2010PropOp56
 70
     1
102
RTVSPost2010Prop57
140
1.0
102
RTVSPost2010PropOp57
 70
     1
102
RTVSPropertyOp0
 70
     1
102
RTVSPropertyOp1
 70
     1
102
RTVSPropertyOp2
 70
     1
102
RTVSPropertyOp3
 70
     1
102
RTVSPropertyOp4
 70
     1
102
RTVSPropertyOp5
 70
     1
102
RTVSPropertyOp6
 70
     1
102
RTVSPropertyOp7
 70
     1
102
RTVSPropertyOp8
 70
     1
102
RTVSPropertyOp9
 70
     1
102
RTVSPropertyOp10
 70
     1
102
RTVSPropertyOp11
 70
     1
102
RTVSPropertyOp12
 70
     1
102
RTVSPropertyOp13
 70
     1
102
RTVSPropertyOp14
 70
     1
102
RTVSPropertyOp15
 70
     1
102
RTVSPropertyOp16
 70
     1
102
RTVSPropertyOp17
 70
     1
102
RTVSPropertyOp18
 70
     1
102
RTVSPropertyOp19
 70
     1
102
RTVSPropertyOp20
 70
     1
102
RTVSPropertyOp21
 70
     1
102
RTVSPropertyOp22
 70
     1
102
RTVSPropertyOp23
 70
     1
102
RTVSPropertyOp24
 70
     1
102
RTVSPropertyOp25
 70
     1
102
RTVSPropertyOp26
 70
     1
102
RTVSPropertyOp27
 70
     1
102
RTVSPropertyOp28
 70
     1
102
RTVSPropertyOp29
 70
     1
102
RTVSPropertyOp30
 70
     1
102
RTVSPropertyOp31
 70
     1
102
RTVSPropertyOp32
 70
     1
102
RTVSPropertyOp33
 70
     1
102
RTVSPropertyOp34
 70
     1
102
RTVSPropertyOp35
 70
     1
102
RTVSPropertyOp36
 70
     1
102
RTVSPropertyOp37
 70
     1
102
RTVSPropertyOp38
 70
     1
102
RTVSPropertyOp39
 70
     1
102
RTVSPropertyOp40
 70
     1
102
RTVSPropertyOp41
 70
     1
102
RTVSPropertyOp42
 70
     1
102
RTVSPropertyOp43
 70
     1
102
RTVSPropertyOp44
 70
     1
102
RTVSPropertyOp45
 70
     1
102
RTVSPropertyOp46
 70
     1
102
RTVSPropertyOp47
 70
     1
102
RTVSPropertyOp48
 70
     1
102
RTVSPropertyOp49
 70
     1
102
RTVSPropertyOp50
 70
     1
102
RTVSPropertyOp51
 70
     0
102
RTVSPropertyOp52
 70
     0
102
RTVSPropertyOp53
 70
     1
102
RTVSPropertyOp54
 70
     1
102
RTVSPropertyOp55
 70
     1
102
RTVSPropertyOp56
 70
     1
102
RTVSPropertyOp57
 70
     1
102
RTVSPropertyOp58
 70
     1
102
RTVSPropertyOp59
 70
     1
102
RTVSPropertyOp60
 70
     1
102
RTVSPropertyOp61
 70
     1
102
RTVSPropertyOp62
 70
     1
  0
XRECORD
  5
2AB6
102
{ACAD_REACTORS
330
2AB5
102
}
330
2AB5
100
AcDbXrecord
280
     1
102
RTVSPost2010Prop28
280
     0
102
RTVSPost2010PropOp28
 70
     1
102
RTVSPost2010Prop29
280
     1
102
RTVSPost2010PropOp29
 70
     1
102
RTVSPost2010Prop30
280
     1
102
RTVSPost2010PropOp30
 70
     1
102
RTVSPost2010Prop31
280
     0
102
RTVSPost2010PropOp31
 70
     1
102
RTVSPost2010Prop32
280
     0
102
RTVSPost2010PropOp32
 70
     1
102
RTVSPost2010Prop33
280
     0
102
RTVSPost2010PropOp33
 70
     1
102
RTVSPost2010Prop34
280
     0
102
RTVSPost2010PropOp34
 70
     1
102
RTVSPost2010Prop35
280
     0
102
RTVSPost2010PropOp35
 70
     1
102
RTVSPost2010Prop36
280
     0
102
RTVSPost2010PropOp36
 70
     1
102
RTVSPost2010Prop37
 90
       50
102
RTVSPost2010PropOp37
 70
     1
102
RTVSPost2010Prop38
140
0.0
102
RTVSPost2010PropOp38
 70
     1
102
RTVSPost2010Prop39
140
1.0
102
RTVSPost2010PropOp39
 70
     1
102
RTVSPost2010Prop40
 90
        0
102
RTVSPost2010PropOp40
 70
     1
102
RTVSPost2010Prop41ColorIndex
 90
       18
102
RTVSPost2010Prop41ColorRGB
 90
        0
102
RTVSPost2010PropOp41
 70
     1
102
RTVSPost2010Prop42
 90
       50
102
RTVSPost2010PropOp42
 70
     1
102
RTVSPost2010Prop43
 90
        3
102
RTVSPost2010PropOp43
 70
     1
102
RTVSPost2010Prop44ColorIndex
 90
        5
102
RTVSPost2010Prop44ColorRGB
 90
      255
102
RTVSPost2010PropOp44
 70
     1
102
RTVSPost2010Prop45
280
     0
102
RTVSPost2010PropOp45
 70
     1
102
RTVSPost2010Prop46
 90
       50
102
RTVSPost2010PropOp46
 70
     1
102
RTVSPost2010Prop47
 90
       50
102
RTVSPost2010PropOp47
 70
     1
102
RTVSPost2010Prop48
 90
       50
102
RTVSPost2010PropOp48
 70
     1
102
RTVSPost2010Prop49
280
     0
102
RTVSPost2010PropOp49
 70
     1
102
RTVSPost2010Prop50
 90
       50
102
RTVSPost2010PropOp50
 70
     1
102
RTVSPost2010Prop51ColorIndex
 90
      256
102
RTVSPost2010Prop51ColorRGB
 90
-16777216
102
RTVSPost2010PropOp51
 70
     0
102
RTVSPost2010Prop52
140
1.0
102
RTVSPost2010PropOp52
 70
     0
102
RTVSPost2010Prop53
 90
        2
102
RTVSPost2010PropOp53
 70
     1
102
RTVSPost2010Prop54
  1
strokes_ogs.tif
102
RTVSPost2010PropOp54
 70
     1
102
RTVSPost2010Prop55
280
     0
102
RTVSPost2010PropOp55
 70
     1
102
RTVSPost2010Prop56
140
1.0
102
RTVSPost2010PropOp56
 70
     1
102
RTVSPost2010Prop57
140
1.0
102
RTVSPost2010PropOp57
 70
     1
102
RTVSPropertyOp0
 70
     1
102
RTVSPropertyOp1
 70
     1
102
RTVSPropertyOp2
 70
     1
102
RTVSPropertyOp3
 70
     1
102
RTVSPropertyOp4
 70
     1
102
RTVSPropertyOp5
 70
     1
102
RTVSPropertyOp6
 70
     1
102
RTVSPropertyOp7
 70
     1
102
RTVSPropertyOp8
 70
     1
102
RTVSPropertyOp9
 70
     1
102
RTVSPropertyOp10
 70
     1
102
RTVSPropertyOp11
 70
     1
102
RTVSPropertyOp12
 70
     1
102
RTVSPropertyOp13
 70
     1
102
RTVSPropertyOp14
 70
     1
102
RTVSPropertyOp15
 70
     1
102
RTVSPropertyOp16
 70
     1
102
RTVSPropertyOp17
 70
     1
102
RTVSPropertyOp18
 70
     1
102
RTVSPropertyOp19
 70
     1
102
RTVSPropertyOp20
 70
     1
102
RTVSPropertyOp21
 70
     1
102
RTVSPropertyOp22
 70
     1
102
RTVSPropertyOp23
 70
     1
102
RTVSPropertyOp24
 70
     1
102
RTVSPropertyOp25
 70
     1
102
RTVSPropertyOp26
 70
     1
102
RTVSPropertyOp27
 70
     1
102
RTVSPropertyOp28
 70
     1
102
RTVSPropertyOp29
 70
     1
102
RTVSPropertyOp30
 70
     1
102
RTVSPropertyOp31
 70
     1
102
RTVSPropertyOp32
 70
     1
102
RTVSPropertyOp33
 70
     1
102
RTVSPropertyOp34
 70
     1
102
RTVSPropertyOp35
 70
     1
102
RTVSPropertyOp36
 70
     1
102
RTVSPropertyOp37
 70
     1
102
RTVSPropertyOp38
 70
     1
102
RTVSPropertyOp39
 70
     1
102
RTVSPropertyOp40
 70
     1
102
RTVSPropertyOp41
 70
     1
102
RTVSPropertyOp42
 70
     1
102
RTVSPropertyOp43
 70
     1
102
RTVSPropertyOp44
 70
     1
102
RTVSPropertyOp45
 70
     1
102
RTVSPropertyOp46
 70
     1
102
RTVSPropertyOp47
 70
     1
102
RTVSPropertyOp48
 70
     1
102
RTVSPropertyOp49
 70
     1
102
RTVSPropertyOp50
 70
     1
102
RTVSPropertyOp51
 70
     0
102
RTVSPropertyOp52
 70
     0
102
RTVSPropertyOp53
 70
     1
102
RTVSPropertyOp54
 70
     1
102
RTVSPropertyOp55
 70
     1
102
RTVSPropertyOp56
 70
     1
102
RTVSPropertyOp57
 70
     1
102
RTVSPropertyOp58
 70
     1
102
RTVSPropertyOp59
 70
     1
102
RTVSPropertyOp60
 70
     1
102
RTVSPropertyOp61
 70
     1
102
RTVSPropertyOp62
 70
     1
  0
XRECORD
  5
2ABA
102
{ACAD_REACTORS
330
2AB9
102
}
330
2AB9
100
AcDbXrecord
280
     1
102
RTVSPost2010Prop28
280
     0
102
RTVSPost2010PropOp28
 70
     1
102
RTVSPost2010Prop29
280
     1
102
RTVSPost2010PropOp29
 70
     1
102
RTVSPost2010Prop30
280
     1
102
RTVSPost2010PropOp30
 70
     1
102
RTVSPost2010Prop31
280
     0
102
RTVSPost2010PropOp31
 70
     1
102
RTVSPost2010Prop32
280
     0
102
RTVSPost2010PropOp32
 70
     1
102
RTVSPost2010Prop33
280
     0
102
RTVSPost2010PropOp33
 70
     1
102
RTVSPost2010Prop34
280
     0
102
RTVSPost2010PropOp34
 70
     1
102
RTVSPost2010Prop35
280
     0
102
RTVSPost2010PropOp35
 70
     1
102
RTVSPost2010Prop36
280
     0
102
RTVSPost2010PropOp36
 70
     1
102
RTVSPost2010Prop37
 90
       50
102
RTVSPost2010PropOp37
 70
     1
102
RTVSPost2010Prop38
140
0.0
102
RTVSPost2010PropOp38
 70
     1
102
RTVSPost2010Prop39
140
1.0
102
RTVSPost2010PropOp39
 70
     1
102
RTVSPost2010Prop40
 90
        0
102
RTVSPost2010PropOp40
 70
     1
102
RTVSPost2010Prop41ColorIndex
 90
       18
102
RTVSPost2010Prop41ColorRGB
 90
        0
102
RTVSPost2010PropOp41
 70
     1
102
RTVSPost2010Prop42
 90
       50
102
RTVSPost2010PropOp42
 70
     1
102
RTVSPost2010Prop43
 90
        3
102
RTVSPost2010PropOp43
 70
     1
102
RTVSPost2010Prop44ColorIndex
 90
        5
102
RTVSPost2010Prop44ColorRGB
 90
      255
102
RTVSPost2010PropOp44
 70
     1
102
RTVSPost2010Prop45
280
     0
102
RTVSPost2010PropOp45
 70
     1
102
RTVSPost2010Prop46
 90
       50
102
RTVSPost2010PropOp46
 70
     1
102
RTVSPost2010Prop47
 90
       50
102
RTVSPost2010PropOp47
 70
     1
102
RTVSPost2010Prop48
 90
       50
102
RTVSPost2010PropOp48
 70
     1
102
RTVSPost2010Prop49
280
     0
102
RTVSPost2010PropOp49
 70
     1
102
RTVSPost2010Prop50
 90
       50
102
RTVSPost2010PropOp50
 70
     1
102
RTVSPost2010Prop51ColorIndex
 90
      256
102
RTVSPost2010Prop51ColorRGB
 90
-16777216
102
RTVSPost2010PropOp51
 70
     0
102
RTVSPost2010Prop52
140
1.0
102
RTVSPost2010PropOp52
 70
     0
102
RTVSPost2010Prop53
 90
        2
102
RTVSPost2010PropOp53
 70
     1
102
RTVSPost2010Prop54
  1
strokes_ogs.tif
102
RTVSPost2010PropOp54
 70
     1
102
RTVSPost2010Prop55
280
     0
102
RTVSPost2010PropOp55
 70
     1
102
RTVSPost2010Prop56
140
1.0
102
RTVSPost2010PropOp56
 70
     1
102
RTVSPost2010Prop57
140
1.0
102
RTVSPost2010PropOp57
 70
     1
102
RTVSPropertyOp0
 70
     1
102
RTVSPropertyOp1
 70
     1
102
RTVSPropertyOp2
 70
     1
102
RTVSPropertyOp3
 70
     1
102
RTVSPropertyOp4
 70
     1
102
RTVSPropertyOp5
 70
     1
102
RTVSPropertyOp6
 70
     1
102
RTVSPropertyOp7
 70
     1
102
RTVSPropertyOp8
 70
     1
102
RTVSPropertyOp9
 70
     1
102
RTVSPropertyOp10
 70
     1
102
RTVSPropertyOp11
 70
     1
102
RTVSPropertyOp12
 70
     1
102
RTVSPropertyOp13
 70
     1
102
RTVSPropertyOp14
 70
     1
102
RTVSPropertyOp15
 70
     1
102
RTVSPropertyOp16
 70
     1
102
RTVSPropertyOp17
 70
     1
102
RTVSPropertyOp18
 70
     1
102
RTVSPropertyOp19
 70
     1
102
RTVSPropertyOp20
 70
     1
102
RTVSPropertyOp21
 70
     1
102
RTVSPropertyOp22
 70
     1
102
RTVSPropertyOp23
 70
     1
102
RTVSPropertyOp24
 70
     1
102
RTVSPropertyOp25
 70
     1
102
RTVSPropertyOp26
 70
     1
102
RTVSPropertyOp27
 70
     1
102
RTVSPropertyOp28
 70
     1
102
RTVSPropertyOp29
 70
     1
102
RTVSPropertyOp30
 70
     1
102
RTVSPropertyOp31
 70
     1
102
RTVSPropertyOp32
 70
     1
102
RTVSPropertyOp33
 70
     1
102
RTVSPropertyOp34
 70
     1
102
RTVSPropertyOp35
 70
     1
102
RTVSPropertyOp36
 70
     1
102
RTVSPropertyOp37
 70
     1
102
RTVSPropertyOp38
 70
     1
102
RTVSPropertyOp39
 70
     1
102
RTVSPropertyOp40
 70
     1
102
RTVSPropertyOp41
 70
     1
102
RTVSPropertyOp42
 70
     1
102
RTVSPropertyOp43
 70
     1
102
RTVSPropertyOp44
 70
     1
102
RTVSPropertyOp45
 70
     1
102
RTVSPropertyOp46
 70
     1
102
RTVSPropertyOp47
 70
     1
102
RTVSPropertyOp48
 70
     1
102
RTVSPropertyOp49
 70
     1
102
RTVSPropertyOp50
 70
     1
102
RTVSPropertyOp51
 70
     0
102
RTVSPropertyOp52
 70
     0
102
RTVSPropertyOp53
 70
     1
102
RTVSPropertyOp54
 70
     1
102
RTVSPropertyOp55
 70
     1
102
RTVSPropertyOp56
 70
     1
102
RTVSPropertyOp57
 70
     1
102
RTVSPropertyOp58
 70
     1
102
RTVSPropertyOp59
 70
     1
102
RTVSPropertyOp60
 70
     1
102
RTVSPropertyOp61
 70
     1
102
RTVSPropertyOp62
 70
     1
  0
XRECORD
  5
2ACA
102
{ACAD_REACTORS
330
2AC9
102
}
330
2AC9
100
AcDbXrecord
280
     1
102
RTVSPost2010Prop28
280
     0
102
RTVSPost2010PropOp28
 70
     1
102
RTVSPost2010Prop29
280
     1
102
RTVSPost2010PropOp29
 70
     1
102
RTVSPost2010Prop30
280
     1
102
RTVSPost2010PropOp30
 70
     1
102
RTVSPost2010Prop31
280
     0
102
RTVSPost2010PropOp31
 70
     1
102
RTVSPost2010Prop32
280
     0
102
RTVSPost2010PropOp32
 70
     1
102
RTVSPost2010Prop33
280
     0
102
RTVSPost2010PropOp33
 70
     1
102
RTVSPost2010Prop34
280
     0
102
RTVSPost2010PropOp34
 70
     1
102
RTVSPost2010Prop35
280
     0
102
RTVSPost2010PropOp35
 70
     1
102
RTVSPost2010Prop36
280
     0
102
RTVSPost2010PropOp36
 70
     1
102
RTVSPost2010Prop37
 90
       50
102
RTVSPost2010PropOp37
 70
     1
102
RTVSPost2010Prop38
140
0.0
102
RTVSPost2010PropOp38
 70
     1
102
RTVSPost2010Prop39
140
1.0
102
RTVSPost2010PropOp39
 70
     1
102
RTVSPost2010Prop40
 90
        0
102
RTVSPost2010PropOp40
 70
     1
102
RTVSPost2010Prop41ColorIndex
 90
       18
102
RTVSPost2010Prop41ColorRGB
 90
        0
102
RTVSPost2010PropOp41
 70
     1
102
RTVSPost2010Prop42
 90
       50
102
RTVSPost2010PropOp42
 70
     1
102
RTVSPost2010Prop43
 90
        3
102
RTVSPost2010PropOp43
 70
     1
102
RTVSPost2010Prop44ColorIndex
 90
        5
102
RTVSPost2010Prop44ColorRGB
 90
      255
102
RTVSPost2010PropOp44
 70
     1
102
RTVSPost2010Prop45
280
     0
102
RTVSPost2010PropOp45
 70
     1
102
RTVSPost2010Prop46
 90
       50
102
RTVSPost2010PropOp46
 70
     1
102
RTVSPost2010Prop47
 90
       50
102
RTVSPost2010PropOp47
 70
     1
102
RTVSPost2010Prop48
 90
       50
102
RTVSPost2010PropOp48
 70
     1
102
RTVSPost2010Prop49
280
     0
102
RTVSPost2010PropOp49
 70
     1
102
RTVSPost2010Prop50
 90
       50
102
RTVSPost2010PropOp50
 70
     1
102
RTVSPost2010Prop51ColorIndex
 90
      256
102
RTVSPost2010Prop51ColorRGB
 90
-16777216
102
RTVSPost2010PropOp51
 70
     0
102
RTVSPost2010Prop52
140
1.0
102
RTVSPost2010PropOp52
 70
     0
102
RTVSPost2010Prop53
 90
        2
102
RTVSPost2010PropOp53
 70
     1
102
RTVSPost2010Prop54
  1
strokes_ogs.tif
102
RTVSPost2010PropOp54
 70
     1
102
RTVSPost2010Prop55
280
     0
102
RTVSPost2010PropOp55
 70
     1
102
RTVSPost2010Prop56
140
1.0
102
RTVSPost2010PropOp56
 70
     1
102
RTVSPost2010Prop57
140
1.0
102
RTVSPost2010PropOp57
 70
     1
102
RTVSPropertyOp0
 70
     0
102
RTVSPropertyOp1
 70
     0
102
RTVSPropertyOp2
 70
     0
102
RTVSPropertyOp3
 70
     0
102
RTVSPropertyOp4
 70
     0
102
RTVSPropertyOp5
 70
     0
102
RTVSPropertyOp6
 70
     0
102
RTVSPropertyOp7
 70
     0
102
RTVSPropertyOp8
 70
     0
102
RTVSPropertyOp9
 70
     0
102
RTVSPropertyOp10
 70
     0
102
RTVSPropertyOp11
 70
     0
102
RTVSPropertyOp12
 70
     0
102
RTVSPropertyOp13
 70
     0
102
RTVSPropertyOp14
 70
     2
102
RTVSPropertyOp15
 70
     0
102
RTVSPropertyOp16
 70
     0
102
RTVSPropertyOp17
 70
     0
102
RTVSPropertyOp18
 70
     0
102
RTVSPropertyOp19
 70
     0
102
RTVSPropertyOp20
 70
     0
102
RTVSPropertyOp21
 70
     0
102
RTVSPropertyOp22
 70
     0
102
RTVSPropertyOp23
 70
     0
102
RTVSPropertyOp24
 70
     0
102
RTVSPropertyOp25
 70
     0
102
RTVSPropertyOp26
 70
     0
102
RTVSPropertyOp27
 70
     0
102
RTVSPropertyOp28
 70
     1
102
RTVSPropertyOp29
 70
     1
102
RTVSPropertyOp30
 70
     1
102
RTVSPropertyOp31
 70
     1
102
RTVSPropertyOp32
 70
     1
102
RTVSPropertyOp33
 70
     1
102
RTVSPropertyOp34
 70
     1
102
RTVSPropertyOp35
 70
     1
102
RTVSPropertyOp36
 70
     1
102
RTVSPropertyOp37
 70
     1
102
RTVSPropertyOp38
 70
     1
102
RTVSPropertyOp39
 70
     1
102
RTVSPropertyOp40
 70
     1
102
RTVSPropertyOp41
 70
     1
102
RTVSPropertyOp42
 70
     1
102
RTVSPropertyOp43
 70
     1
102
RTVSPropertyOp44
 70
     1
102
RTVSPropertyOp45
 70
     1
102
RTVSPropertyOp46
 70
     1
102
RTVSPropertyOp47
 70
     1
102
RTVSPropertyOp48
 70
     1
102
RTVSPropertyOp49
 70
     1
102
RTVSPropertyOp50
 70
     1
102
RTVSPropertyOp51
 70
     0
102
RTVSPropertyOp52
 70
     0
102
RTVSPropertyOp53
 70
     1
102
RTVSPropertyOp54
 70
     1
102
RTVSPropertyOp55
 70
     1
102
RTVSPropertyOp56
 70
     1
102
RTVSPropertyOp57
 70
     1
102
RTVSPropertyOp58
 70
     1
102
RTVSPropertyOp59
 70
     1
102
RTVSPropertyOp60
 70
     1
102
RTVSPropertyOp61
 70
     1
102
RTVSPropertyOp62
 70
     1
  0
XRECORD
  5
2AC2
102
{ACAD_REACTORS
330
2AC1
102
}
330
2AC1
100
AcDbXrecord
280
     1
102
RTVSPost2010Prop28
280
     0
102
RTVSPost2010PropOp28
 70
     1
102
RTVSPost2010Prop29
280
     1
102
RTVSPost2010PropOp29
 70
     1
102
RTVSPost2010Prop30
280
     1
102
RTVSPost2010PropOp30
 70
     1
102
RTVSPost2010Prop31
280
     0
102
RTVSPost2010PropOp31
 70
     1
102
RTVSPost2010Prop32
280
     0
102
RTVSPost2010PropOp32
 70
     1
102
RTVSPost2010Prop33
280
     0
102
RTVSPost2010PropOp33
 70
     1
102
RTVSPost2010Prop34
280
     0
102
RTVSPost2010PropOp34
 70
     1
102
RTVSPost2010Prop35
280
     0
102
RTVSPost2010PropOp35
 70
     1
102
RTVSPost2010Prop36
280
     0
102
RTVSPost2010PropOp36
 70
     1
102
RTVSPost2010Prop37
 90
       50
102
RTVSPost2010PropOp37
 70
     1
102
RTVSPost2010Prop38
140
0.0
102
RTVSPost2010PropOp38
 70
     1
102
RTVSPost2010Prop39
140
1.0
102
RTVSPost2010PropOp39
 70
     1
102
RTVSPost2010Prop40
 90
        0
102
RTVSPost2010PropOp40
 70
     1
102
RTVSPost2010Prop41ColorIndex
 90
       18
102
RTVSPost2010Prop41ColorRGB
 90
        0
102
RTVSPost2010PropOp41
 70
     1
102
RTVSPost2010Prop42
 90
       50
102
RTVSPost2010PropOp42
 70
     1
102
RTVSPost2010Prop43
 90
        3
102
RTVSPost2010PropOp43
 70
     1
102
RTVSPost2010Prop44ColorIndex
 90
        5
102
RTVSPost2010Prop44ColorRGB
 90
      255
102
RTVSPost2010PropOp44
 70
     1
102
RTVSPost2010Prop45
280
     0
102
RTVSPost2010PropOp45
 70
     1
102
RTVSPost2010Prop46
 90
       50
102
RTVSPost2010PropOp46
 70
     1
102
RTVSPost2010Prop47
 90
       50
102
RTVSPost2010PropOp47
 70
     1
102
RTVSPost2010Prop48
 90
       50
102
RTVSPost2010PropOp48
 70
     1
102
RTVSPost2010Prop49
280
     0
102
RTVSPost2010PropOp49
 70
     1
102
RTVSPost2010Prop50
 90
       50
102
RTVSPost2010PropOp50
 70
     1
102
RTVSPost2010Prop51ColorIndex
 90
      256
102
RTVSPost2010Prop51ColorRGB
 90
-16777216
102
RTVSPost2010PropOp51
 70
     0
102
RTVSPost2010Prop52
140
1.0
102
RTVSPost2010PropOp52
 70
     0
102
RTVSPost2010Prop53
 90
        2
102
RTVSPost2010PropOp53
 70
     1
102
RTVSPost2010Prop54
  1
strokes_ogs.tif
102
RTVSPost2010PropOp54
 70
     1
102
RTVSPost2010Prop55
280
     0
102
RTVSPost2010PropOp55
 70
     1
102
RTVSPost2010Prop56
140
1.0
102
RTVSPost2010PropOp56
 70
     1
102
RTVSPost2010Prop57
140
1.0
102
RTVSPost2010PropOp57
 70
     1
102
RTVSPropertyOp0
 70
     1
102
RTVSPropertyOp1
 70
     1
102
RTVSPropertyOp2
 70
     1
102
RTVSPropertyOp3
 70
     1
102
RTVSPropertyOp4
 70
     1
102
RTVSPropertyOp5
 70
     1
102
RTVSPropertyOp6
 70
     1
102
RTVSPropertyOp7
 70
     1
102
RTVSPropertyOp8
 70
     1
102
RTVSPropertyOp9
 70
     1
102
RTVSPropertyOp10
 70
     1
102
RTVSPropertyOp11
 70
     1
102
RTVSPropertyOp12
 70
     1
102
RTVSPropertyOp13
 70
     1
102
RTVSPropertyOp14
 70
     1
102
RTVSPropertyOp15
 70
     1
102
RTVSPropertyOp16
 70
     1
102
RTVSPropertyOp17
 70
     1
102
RTVSPropertyOp18
 70
     1
102
RTVSPropertyOp19
 70
     1
102
RTVSPropertyOp20
 70
     1
102
RTVSPropertyOp21
 70
     1
102
RTVSPropertyOp22
 70
     1
102
RTVSPropertyOp23
 70
     1
102
RTVSPropertyOp24
 70
     1
102
RTVSPropertyOp25
 70
     1
102
RTVSPropertyOp26
 70
     1
102
RTVSPropertyOp27
 70
     1
102
RTVSPropertyOp28
 70
     1
102
RTVSPropertyOp29
 70
     1
102
RTVSPropertyOp30
 70
     1
102
RTVSPropertyOp31
 70
     1
102
RTVSPropertyOp32
 70
     1
102
RTVSPropertyOp33
 70
     1
102
RTVSPropertyOp34
 70
     1
102
RTVSPropertyOp35
 70
     1
102
RTVSPropertyOp36
 70
     1
102
RTVSPropertyOp37
 70
     1
102
RTVSPropertyOp38
 70
     1
102
RTVSPropertyOp39
 70
     1
102
RTVSPropertyOp40
 70
     1
102
RTVSPropertyOp41
 70
     1
102
RTVSPropertyOp42
 70
     1
102
RTVSPropertyOp43
 70
     1
102
RTVSPropertyOp44
 70
     1
102
RTVSPropertyOp45
 70
     1
102
RTVSPropertyOp46
 70
     1
102
RTVSPropertyOp47
 70
     1
102
RTVSPropertyOp48
 70
     1
102
RTVSPropertyOp49
 70
     1
102
RTVSPropertyOp50
 70
     1
102
RTVSPropertyOp51
 70
     0
102
RTVSPropertyOp52
 70
     0
102
RTVSPropertyOp53
 70
     1
102
RTVSPropertyOp54
 70
     1
102
RTVSPropertyOp55
 70
     1
102
RTVSPropertyOp56
 70
     1
102
RTVSPropertyOp57
 70
     1
102
RTVSPropertyOp58
 70
     1
102
RTVSPropertyOp59
 70
     1
102
RTVSPropertyOp60
 70
     1
102
RTVSPropertyOp61
 70
     1
102
RTVSPropertyOp62
 70
     1
  0
XRECORD
  5
2AA6
102
{ACAD_REACTORS
330
2AA5
102
}
330
2AA5
100
AcDbXrecord
280
     1
102
RTVSPost2010Prop28
280
     0
102
RTVSPost2010PropOp28
 70
     1
102
RTVSPost2010Prop29
280
     1
102
RTVSPost2010PropOp29
 70
     1
102
RTVSPost2010Prop30
280
     1
102
RTVSPost2010PropOp30
 70
     1
102
RTVSPost2010Prop31
280
     0
102
RTVSPost2010PropOp31
 70
     1
102
RTVSPost2010Prop32
280
     0
102
RTVSPost2010PropOp32
 70
     1
102
RTVSPost2010Prop33
280
     0
102
RTVSPost2010PropOp33
 70
     1
102
RTVSPost2010Prop34
280
     0
102
RTVSPost2010PropOp34
 70
     1
102
RTVSPost2010Prop35
280
     0
102
RTVSPost2010PropOp35
 70
     1
102
RTVSPost2010Prop36
280
     0
102
RTVSPost2010PropOp36
 70
     1
102
RTVSPost2010Prop37
 90
       50
102
RTVSPost2010PropOp37
 70
     1
102
RTVSPost2010Prop38
140
0.0
102
RTVSPost2010PropOp38
 70
     1
102
RTVSPost2010Prop39
140
1.0
102
RTVSPost2010PropOp39
 70
     1
102
RTVSPost2010Prop40
 90
        0
102
RTVSPost2010PropOp40
 70
     1
102
RTVSPost2010Prop41ColorIndex
 90
       18
102
RTVSPost2010Prop41ColorRGB
 90
        0
102
RTVSPost2010PropOp41
 70
     1
102
RTVSPost2010Prop42
 90
       50
102
RTVSPost2010PropOp42
 70
     1
102
RTVSPost2010Prop43
 90
        3
102
RTVSPost2010PropOp43
 70
     1
102
RTVSPost2010Prop44ColorIndex
 90
        5
102
RTVSPost2010Prop44ColorRGB
 90
      255
102
RTVSPost2010PropOp44
 70
     1
102
RTVSPost2010Prop45
280
     0
102
RTVSPost2010PropOp45
 70
     1
102
RTVSPost2010Prop46
 90
       50
102
RTVSPost2010PropOp46
 70
     1
102
RTVSPost2010Prop47
 90
       50
102
RTVSPost2010PropOp47
 70
     1
102
RTVSPost2010Prop48
 90
       50
102
RTVSPost2010PropOp48
 70
     1
102
RTVSPost2010Prop49
280
     0
102
RTVSPost2010PropOp49
 70
     1
102
RTVSPost2010Prop50
 90
       50
102
RTVSPost2010PropOp50
 70
     1
102
RTVSPost2010Prop51ColorIndex
 90
      256
102
RTVSPost2010Prop51ColorRGB
 90
-16777216
102
RTVSPost2010PropOp51
 70
     0
102
RTVSPost2010Prop52
140
1.0
102
RTVSPost2010PropOp52
 70
     0
102
RTVSPost2010Prop53
 90
        2
102
RTVSPost2010PropOp53
 70
     1
102
RTVSPost2010Prop54
  1
strokes_ogs.tif
102
RTVSPost2010PropOp54
 70
     1
102
RTVSPost2010Prop55
280
     0
102
RTVSPost2010PropOp55
 70
     1
102
RTVSPost2010Prop56
140
1.0
102
RTVSPost2010PropOp56
 70
     1
102
RTVSPost2010Prop57
140
1.0
102
RTVSPost2010PropOp57
 70
     1
102
RTVSPropertyOp0
 70
     1
102
RTVSPropertyOp1
 70
     1
102
RTVSPropertyOp2
 70
     1
102
RTVSPropertyOp3
 70
     1
102
RTVSPropertyOp4
 70
     1
102
RTVSPropertyOp5
 70
     1
102
RTVSPropertyOp6
 70
     1
102
RTVSPropertyOp7
 70
     1
102
RTVSPropertyOp8
 70
     1
102
RTVSPropertyOp9
 70
     1
102
RTVSPropertyOp10
 70
     1
102
RTVSPropertyOp11
 70
     1
102
RTVSPropertyOp12
 70
     1
102
RTVSPropertyOp13
 70
     1
102
RTVSPropertyOp14
 70
     1
102
RTVSPropertyOp15
 70
     1
102
RTVSPropertyOp16
 70
     1
102
RTVSPropertyOp17
 70
     1
102
RTVSPropertyOp18
 70
     1
102
RTVSPropertyOp19
 70
     1
102
RTVSPropertyOp20
 70
     1
102
RTVSPropertyOp21
 70
     1
102
RTVSPropertyOp22
 70
     1
102
RTVSPropertyOp23
 70
     1
102
RTVSPropertyOp24
 70
     1
102
RTVSPropertyOp25
 70
     1
102
RTVSPropertyOp26
 70
     1
102
RTVSPropertyOp27
 70
     1
102
RTVSPropertyOp28
 70
     1
102
RTVSPropertyOp29
 70
     1
102
RTVSPropertyOp30
 70
     1
102
RTVSPropertyOp31
 70
     1
102
RTVSPropertyOp32
 70
     1
102
RTVSPropertyOp33
 70
     1
102
RTVSPropertyOp34
 70
     1
102
RTVSPropertyOp35
 70
     1
102
RTVSPropertyOp36
 70
     1
102
RTVSPropertyOp37
 70
     1
102
RTVSPropertyOp38
 70
     1
102
RTVSPropertyOp39
 70
     1
102
RTVSPropertyOp40
 70
     1
102
RTVSPropertyOp41
 70
     1
102
RTVSPropertyOp42
 70
     1
102
RTVSPropertyOp43
 70
     1
102
RTVSPropertyOp44
 70
     1
102
RTVSPropertyOp45
 70
     1
102
RTVSPropertyOp46
 70
     1
102
RTVSPropertyOp47
 70
     1
102
RTVSPropertyOp48
 70
     1
102
RTVSPropertyOp49
 70
     1
102
RTVSPropertyOp50
 70
     1
102
RTVSPropertyOp51
 70
     0
102
RTVSPropertyOp52
 70
     0
102
RTVSPropertyOp53
 70
     1
102
RTVSPropertyOp54
 70
     1
102
RTVSPropertyOp55
 70
     1
102
RTVSPropertyOp56
 70
     1
102
RTVSPropertyOp57
 70
     1
102
RTVSPropertyOp58
 70
     1
102
RTVSPropertyOp59
 70
     1
102
RTVSPropertyOp60
 70
     1
102
RTVSPropertyOp61
 70
     1
102
RTVSPropertyOp62
 70
     1
  0
XRECORD
  5
2AA8
102
{ACAD_REACTORS
330
2AA7
102
}
330
2AA7
100
AcDbXrecord
280
     1
102
RTVSPost2010Prop28
280
     0
102
RTVSPost2010PropOp28
 70
     1
102
RTVSPost2010Prop29
280
     1
102
RTVSPost2010PropOp29
 70
     1
102
RTVSPost2010Prop30
280
     1
102
RTVSPost2010PropOp30
 70
     1
102
RTVSPost2010Prop31
280
     0
102
RTVSPost2010PropOp31
 70
     1
102
RTVSPost2010Prop32
280
     0
102
RTVSPost2010PropOp32
 70
     1
102
RTVSPost2010Prop33
280
     0
102
RTVSPost2010PropOp33
 70
     1
102
RTVSPost2010Prop34
280
     0
102
RTVSPost2010PropOp34
 70
     1
102
RTVSPost2010Prop35
280
     0
102
RTVSPost2010PropOp35
 70
     1
102
RTVSPost2010Prop36
280
     0
102
RTVSPost2010PropOp36
 70
     1
102
RTVSPost2010Prop37
 90
       50
102
RTVSPost2010PropOp37
 70
     1
102
RTVSPost2010Prop38
140
0.0
102
RTVSPost2010PropOp38
 70
     1
102
RTVSPost2010Prop39
140
1.0
102
RTVSPost2010PropOp39
 70
     1
102
RTVSPost2010Prop40
 90
        0
102
RTVSPost2010PropOp40
 70
     1
102
RTVSPost2010Prop41ColorIndex
 90
       18
102
RTVSPost2010Prop41ColorRGB
 90
        0
102
RTVSPost2010PropOp41
 70
     1
102
RTVSPost2010Prop42
 90
       50
102
RTVSPost2010PropOp42
 70
     1
102
RTVSPost2010Prop43
 90
        3
102
RTVSPost2010PropOp43
 70
     1
102
RTVSPost2010Prop44ColorIndex
 90
        5
102
RTVSPost2010Prop44ColorRGB
 90
      255
102
RTVSPost2010PropOp44
 70
     1
102
RTVSPost2010Prop45
280
     0
102
RTVSPost2010PropOp45
 70
     1
102
RTVSPost2010Prop46
 90
       50
102
RTVSPost2010PropOp46
 70
     1
102
RTVSPost2010Prop47
 90
       50
102
RTVSPost2010PropOp47
 70
     1
102
RTVSPost2010Prop48
 90
       50
102
RTVSPost2010PropOp48
 70
     1
102
RTVSPost2010Prop49
280
     0
102
RTVSPost2010PropOp49
 70
     1
102
RTVSPost2010Prop50
 90
       50
102
RTVSPost2010PropOp50
 70
     1
102
RTVSPost2010Prop51ColorIndex
 90
      256
102
RTVSPost2010Prop51ColorRGB
 90
-16777216
102
RTVSPost2010PropOp51
 70
     0
102
RTVSPost2010Prop52
140
1.0
102
RTVSPost2010PropOp52
 70
     0
102
RTVSPost2010Prop53
 90
        2
102
RTVSPost2010PropOp53
 70
     1
102
RTVSPost2010Prop54
  1
strokes_ogs.tif
102
RTVSPost2010PropOp54
 70
     1
102
RTVSPost2010Prop55
280
     0
102
RTVSPost2010PropOp55
 70
     1
102
RTVSPost2010Prop56
140
1.0
102
RTVSPost2010PropOp56
 70
     1
102
RTVSPost2010Prop57
140
1.0
102
RTVSPost2010PropOp57
 70
     1
102
RTVSPropertyOp0
 70
     1
102
RTVSPropertyOp1
 70
     1
102
RTVSPropertyOp2
 70
     1
102
RTVSPropertyOp3
 70
     1
102
RTVSPropertyOp4
 70
     1
102
RTVSPropertyOp5
 70
     1
102
RTVSPropertyOp6
 70
     1
102
RTVSPropertyOp7
 70
     1
102
RTVSPropertyOp8
 70
     1
102
RTVSPropertyOp9
 70
     1
102
RTVSPropertyOp10
 70
     1
102
RTVSPropertyOp11
 70
     1
102
RTVSPropertyOp12
 70
     1
102
RTVSPropertyOp13
 70
     1
102
RTVSPropertyOp14
 70
     1
102
RTVSPropertyOp15
 70
     1
102
RTVSPropertyOp16
 70
     1
102
RTVSPropertyOp17
 70
     1
102
RTVSPropertyOp18
 70
     1
102
RTVSPropertyOp19
 70
     1
102
RTVSPropertyOp20
 70
     1
102
RTVSPropertyOp21
 70
     1
102
RTVSPropertyOp22
 70
     1
102
RTVSPropertyOp23
 70
     1
102
RTVSPropertyOp24
 70
     1
102
RTVSPropertyOp25
 70
     1
102
RTVSPropertyOp26
 70
     1
102
RTVSPropertyOp27
 70
     1
102
RTVSPropertyOp28
 70
     1
102
RTVSPropertyOp29
 70
     1
102
RTVSPropertyOp30
 70
     1
102
RTVSPropertyOp31
 70
     1
102
RTVSPropertyOp32
 70
     1
102
RTVSPropertyOp33
 70
     1
102
RTVSPropertyOp34
 70
     1
102
RTVSPropertyOp35
 70
     1
102
RTVSPropertyOp36
 70
     1
102
RTVSPropertyOp37
 70
     1
102
RTVSPropertyOp38
 70
     1
102
RTVSPropertyOp39
 70
     1
102
RTVSPropertyOp40
 70
     1
102
RTVSPropertyOp41
 70
     1
102
RTVSPropertyOp42
 70
     1
102
RTVSPropertyOp43
 70
     1
102
RTVSPropertyOp44
 70
     1
102
RTVSPropertyOp45
 70
     1
102
RTVSPropertyOp46
 70
     1
102
RTVSPropertyOp47
 70
     1
102
RTVSPropertyOp48
 70
     1
102
RTVSPropertyOp49
 70
     1
102
RTVSPropertyOp50
 70
     1
102
RTVSPropertyOp51
 70
     0
102
RTVSPropertyOp52
 70
     0
102
RTVSPropertyOp53
 70
     1
102
RTVSPropertyOp54
 70
     1
102
RTVSPropertyOp55
 70
     1
102
RTVSPropertyOp56
 70
     1
102
RTVSPropertyOp57
 70
     1
102
RTVSPropertyOp58
 70
     1
102
RTVSPropertyOp59
 70
     1
102
RTVSPropertyOp60
 70
     1
102
RTVSPropertyOp61
 70
     1
102
RTVSPropertyOp62
 70
     1
  0
XRECORD
  5
2AAA
102
{ACAD_REACTORS
330
2AA9
102
}
330
2AA9
100
AcDbXrecord
280
     1
102
RTVSPost2010Prop28
280
     0
102
RTVSPost2010PropOp28
 70
     1
102
RTVSPost2010Prop29
280
     1
102
RTVSPost2010PropOp29
 70
     1
102
RTVSPost2010Prop30
280
     1
102
RTVSPost2010PropOp30
 70
     1
102
RTVSPost2010Prop31
280
     0
102
RTVSPost2010PropOp31
 70
     1
102
RTVSPost2010Prop32
280
     0
102
RTVSPost2010PropOp32
 70
     1
102
RTVSPost2010Prop33
280
     0
102
RTVSPost2010PropOp33
 70
     1
102
RTVSPost2010Prop34
280
     0
102
RTVSPost2010PropOp34
 70
     1
102
RTVSPost2010Prop35
280
     0
102
RTVSPost2010PropOp35
 70
     1
102
RTVSPost2010Prop36
280
     0
102
RTVSPost2010PropOp36
 70
     1
102
RTVSPost2010Prop37
 90
       50
102
RTVSPost2010PropOp37
 70
     1
102
RTVSPost2010Prop38
140
0.0
102
RTVSPost2010PropOp38
 70
     1
102
RTVSPost2010Prop39
140
1.0
102
RTVSPost2010PropOp39
 70
     1
102
RTVSPost2010Prop40
 90
        0
102
RTVSPost2010PropOp40
 70
     1
102
RTVSPost2010Prop41ColorIndex
 90
       18
102
RTVSPost2010Prop41ColorRGB
 90
        0
102
RTVSPost2010PropOp41
 70
     1
102
RTVSPost2010Prop42
 90
       50
102
RTVSPost2010PropOp42
 70
     1
102
RTVSPost2010Prop43
 90
        3
102
RTVSPost2010PropOp43
 70
     1
102
RTVSPost2010Prop44ColorIndex
 90
        5
102
RTVSPost2010Prop44ColorRGB
 90
      255
102
RTVSPost2010PropOp44
 70
     1
102
RTVSPost2010Prop45
280
     0
102
RTVSPost2010PropOp45
 70
     1
102
RTVSPost2010Prop46
 90
       50
102
RTVSPost2010PropOp46
 70
     1
102
RTVSPost2010Prop47
 90
       50
102
RTVSPost2010PropOp47
 70
     1
102
RTVSPost2010Prop48
 90
       50
102
RTVSPost2010PropOp48
 70
     1
102
RTVSPost2010Prop49
280
     0
102
RTVSPost2010PropOp49
 70
     1
102
RTVSPost2010Prop50
 90
       50
102
RTVSPost2010PropOp50
 70
     1
102
RTVSPost2010Prop51ColorIndex
 90
      256
102
RTVSPost2010Prop51ColorRGB
 90
-16777216
102
RTVSPost2010PropOp51
 70
     0
102
RTVSPost2010Prop52
140
1.0
102
RTVSPost2010PropOp52
 70
     0
102
RTVSPost2010Prop53
 90
        2
102
RTVSPost2010PropOp53
 70
     1
102
RTVSPost2010Prop54
  1
strokes_ogs.tif
102
RTVSPost2010PropOp54
 70
     1
102
RTVSPost2010Prop55
280
     0
102
RTVSPost2010PropOp55
 70
     1
102
RTVSPost2010Prop56
140
1.0
102
RTVSPost2010PropOp56
 70
     1
102
RTVSPost2010Prop57
140
1.0
102
RTVSPost2010PropOp57
 70
     1
102
RTVSPropertyOp0
 70
     1
102
RTVSPropertyOp1
 70
     1
102
RTVSPropertyOp2
 70
     1
102
RTVSPropertyOp3
 70
     1
102
RTVSPropertyOp4
 70
     1
102
RTVSPropertyOp5
 70
     1
102
RTVSPropertyOp6
 70
     1
102
RTVSPropertyOp7
 70
     1
102
RTVSPropertyOp8
 70
     1
102
RTVSPropertyOp9
 70
     1
102
RTVSPropertyOp10
 70
     1
102
RTVSPropertyOp11
 70
     1
102
RTVSPropertyOp12
 70
     1
102
RTVSPropertyOp13
 70
     1
102
RTVSPropertyOp14
 70
     1
102
RTVSPropertyOp15
 70
     1
102
RTVSPropertyOp16
 70
     1
102
RTVSPropertyOp17
 70
     1
102
RTVSPropertyOp18
 70
     1
102
RTVSPropertyOp19
 70
     1
102
RTVSPropertyOp20
 70
     1
102
RTVSPropertyOp21
 70
     1
102
RTVSPropertyOp22
 70
     1
102
RTVSPropertyOp23
 70
     1
102
RTVSPropertyOp24
 70
     1
102
RTVSPropertyOp25
 70
     1
102
RTVSPropertyOp26
 70
     1
102
RTVSPropertyOp27
 70
     1
102
RTVSPropertyOp28
 70
     1
102
RTVSPropertyOp29
 70
     1
102
RTVSPropertyOp30
 70
     1
102
RTVSPropertyOp31
 70
     1
102
RTVSPropertyOp32
 70
     1
102
RTVSPropertyOp33
 70
     1
102
RTVSPropertyOp34
 70
     1
102
RTVSPropertyOp35
 70
     1
102
RTVSPropertyOp36
 70
     1
102
RTVSPropertyOp37
 70
     1
102
RTVSPropertyOp38
 70
     1
102
RTVSPropertyOp39
 70
     1
102
RTVSPropertyOp40
 70
     1
102
RTVSPropertyOp41
 70
     1
102
RTVSPropertyOp42
 70
     1
102
RTVSPropertyOp43
 70
     1
102
RTVSPropertyOp44
 70
     1
102
RTVSPropertyOp45
 70
     1
102
RTVSPropertyOp46
 70
     1
102
RTVSPropertyOp47
 70
     1
102
RTVSPropertyOp48
 70
     1
102
RTVSPropertyOp49
 70
     1
102
RTVSPropertyOp50
 70
     1
102
RTVSPropertyOp51
 70
     0
102
RTVSPropertyOp52
 70
     0
102
RTVSPropertyOp53
 70
     1
102
RTVSPropertyOp54
 70
     1
102
RTVSPropertyOp55
 70
     1
102
RTVSPropertyOp56
 70
     1
102
RTVSPropertyOp57
 70
     1
102
RTVSPropertyOp58
 70
     1
102
RTVSPropertyOp59
 70
     1
102
RTVSPropertyOp60
 70
     1
102
RTVSPropertyOp61
 70
     1
102
RTVSPropertyOp62
 70
     1
  0
XRECORD
  5
2AAC
102
{ACAD_REACTORS
330
2AAB
102
}
330
2AAB
100
AcDbXrecord
280
     1
102
RTVSPost2010Prop28
280
     0
102
RTVSPost2010PropOp28
 70
     1
102
RTVSPost2010Prop29
280
     1
102
RTVSPost2010PropOp29
 70
     1
102
RTVSPost2010Prop30
280
     1
102
RTVSPost2010PropOp30
 70
     1
102
RTVSPost2010Prop31
280
     0
102
RTVSPost2010PropOp31
 70
     1
102
RTVSPost2010Prop32
280
     0
102
RTVSPost2010PropOp32
 70
     1
102
RTVSPost2010Prop33
280
     0
102
RTVSPost2010PropOp33
 70
     1
102
RTVSPost2010Prop34
280
     0
102
RTVSPost2010PropOp34
 70
     1
102
RTVSPost2010Prop35
280
     0
102
RTVSPost2010PropOp35
 70
     1
102
RTVSPost2010Prop36
280
     0
102
RTVSPost2010PropOp36
 70
     1
102
RTVSPost2010Prop37
 90
       50
102
RTVSPost2010PropOp37
 70
     1
102
RTVSPost2010Prop38
140
0.0
102
RTVSPost2010PropOp38
 70
     1
102
RTVSPost2010Prop39
140
1.0
102
RTVSPost2010PropOp39
 70
     1
102
RTVSPost2010Prop40
 90
        0
102
RTVSPost2010PropOp40
 70
     1
102
RTVSPost2010Prop41ColorIndex
 90
       18
102
RTVSPost2010Prop41ColorRGB
 90
        0
102
RTVSPost2010PropOp41
 70
     1
102
RTVSPost2010Prop42
 90
       50
102
RTVSPost2010PropOp42
 70
     1
102
RTVSPost2010Prop43
 90
        3
102
RTVSPost2010PropOp43
 70
     1
102
RTVSPost2010Prop44ColorIndex
 90
        5
102
RTVSPost2010Prop44ColorRGB
 90
      255
102
RTVSPost2010PropOp44
 70
     1
102
RTVSPost2010Prop45
280
     0
102
RTVSPost2010PropOp45
 70
     1
102
RTVSPost2010Prop46
 90
       50
102
RTVSPost2010PropOp46
 70
     1
102
RTVSPost2010Prop47
 90
       50
102
RTVSPost2010PropOp47
 70
     1
102
RTVSPost2010Prop48
 90
       50
102
RTVSPost2010PropOp48
 70
     1
102
RTVSPost2010Prop49
280
     0
102
RTVSPost2010PropOp49
 70
     1
102
RTVSPost2010Prop50
 90
       50
102
RTVSPost2010PropOp50
 70
     1
102
RTVSPost2010Prop51ColorIndex
 90
      256
102
RTVSPost2010Prop51ColorRGB
 90
-16777216
102
RTVSPost2010PropOp51
 70
     0
102
RTVSPost2010Prop52
140
1.0
102
RTVSPost2010PropOp52
 70
     0
102
RTVSPost2010Prop53
 90
        2
102
RTVSPost2010PropOp53
 70
     1
102
RTVSPost2010Prop54
  1
strokes_ogs.tif
102
RTVSPost2010PropOp54
 70
     1
102
RTVSPost2010Prop55
280
     0
102
RTVSPost2010PropOp55
 70
     1
102
RTVSPost2010Prop56
140
1.0
102
RTVSPost2010PropOp56
 70
     1
102
RTVSPost2010Prop57
140
1.0
102
RTVSPost2010PropOp57
 70
     1
102
RTVSPropertyOp0
 70
     1
102
RTVSPropertyOp1
 70
     1
102
RTVSPropertyOp2
 70
     1
102
RTVSPropertyOp3
 70
     1
102
RTVSPropertyOp4
 70
     1
102
RTVSPropertyOp5
 70
     1
102
RTVSPropertyOp6
 70
     1
102
RTVSPropertyOp7
 70
     1
102
RTVSPropertyOp8
 70
     1
102
RTVSPropertyOp9
 70
     1
102
RTVSPropertyOp10
 70
     1
102
RTVSPropertyOp11
 70
     1
102
RTVSPropertyOp12
 70
     1
102
RTVSPropertyOp13
 70
     1
102
RTVSPropertyOp14
 70
     1
102
RTVSPropertyOp15
 70
     1
102
RTVSPropertyOp16
 70
     1
102
RTVSPropertyOp17
 70
     1
102
RTVSPropertyOp18
 70
     1
102
RTVSPropertyOp19
 70
     1
102
RTVSPropertyOp20
 70
     1
102
RTVSPropertyOp21
 70
     1
102
RTVSPropertyOp22
 70
     1
102
RTVSPropertyOp23
 70
     1
102
RTVSPropertyOp24
 70
     1
102
RTVSPropertyOp25
 70
     1
102
RTVSPropertyOp26
 70
     1
102
RTVSPropertyOp27
 70
     1
102
RTVSPropertyOp28
 70
     1
102
RTVSPropertyOp29
 70
     1
102
RTVSPropertyOp30
 70
     1
102
RTVSPropertyOp31
 70
     1
102
RTVSPropertyOp32
 70
     1
102
RTVSPropertyOp33
 70
     1
102
RTVSPropertyOp34
 70
     1
102
RTVSPropertyOp35
 70
     1
102
RTVSPropertyOp36
 70
     1
102
RTVSPropertyOp37
 70
     1
102
RTVSPropertyOp38
 70
     1
102
RTVSPropertyOp39
 70
     1
102
RTVSPropertyOp40
 70
     1
102
RTVSPropertyOp41
 70
     1
102
RTVSPropertyOp42
 70
     1
102
RTVSPropertyOp43
 70
     1
102
RTVSPropertyOp44
 70
     1
102
RTVSPropertyOp45
 70
     1
102
RTVSPropertyOp46
 70
     1
102
RTVSPropertyOp47
 70
     1
102
RTVSPropertyOp48
 70
     1
102
RTVSPropertyOp49
 70
     1
102
RTVSPropertyOp50
 70
     1
102
RTVSPropertyOp51
 70
     0
102
RTVSPropertyOp52
 70
     0
102
RTVSPropertyOp53
 70
     1
102
RTVSPropertyOp54
 70
     1
102
RTVSPropertyOp55
 70
     1
102
RTVSPropertyOp56
 70
     1
102
RTVSPropertyOp57
 70
     1
102
RTVSPropertyOp58
 70
     1
102
RTVSPropertyOp59
 70
     1
102
RTVSPropertyOp60
 70
     1
102
RTVSPropertyOp61
 70
     1
102
RTVSPropertyOp62
 70
     1
  0
XRECORD
  5
2ACE
102
{ACAD_REACTORS
330
2ACD
102
}
330
2ACD
100
AcDbXrecord
280
     1
102
RTVSPost2010Prop28
280
     0
102
RTVSPost2010PropOp28
 70
     1
102
RTVSPost2010Prop29
280
     1
102
RTVSPost2010PropOp29
 70
     1
102
RTVSPost2010Prop30
280
     1
102
RTVSPost2010PropOp30
 70
     1
102
RTVSPost2010Prop31
280
     0
102
RTVSPost2010PropOp31
 70
     1
102
RTVSPost2010Prop32
280
     0
102
RTVSPost2010PropOp32
 70
     1
102
RTVSPost2010Prop33
280
     0
102
RTVSPost2010PropOp33
 70
     1
102
RTVSPost2010Prop34
280
     0
102
RTVSPost2010PropOp34
 70
     1
102
RTVSPost2010Prop35
280
     0
102
RTVSPost2010PropOp35
 70
     1
102
RTVSPost2010Prop36
280
     0
102
RTVSPost2010PropOp36
 70
     1
102
RTVSPost2010Prop37
 90
       50
102
RTVSPost2010PropOp37
 70
     1
102
RTVSPost2010Prop38
140
0.0
102
RTVSPost2010PropOp38
 70
     1
102
RTVSPost2010Prop39
140
1.0
102
RTVSPost2010PropOp39
 70
     1
102
RTVSPost2010Prop40
 90
        0
102
RTVSPost2010PropOp40
 70
     1
102
RTVSPost2010Prop41ColorIndex
 90
       18
102
RTVSPost2010Prop41ColorRGB
 90
        0
102
RTVSPost2010PropOp41
 70
     1
102
RTVSPost2010Prop42
 90
       50
102
RTVSPost2010PropOp42
 70
     1
102
RTVSPost2010Prop43
 90
        3
102
RTVSPost2010PropOp43
 70
     1
102
RTVSPost2010Prop44ColorIndex
 90
        5
102
RTVSPost2010Prop44ColorRGB
 90
      255
102
RTVSPost2010PropOp44
 70
     1
102
RTVSPost2010Prop45
280
     0
102
RTVSPost2010PropOp45
 70
     1
102
RTVSPost2010Prop46
 90
       50
102
RTVSPost2010PropOp46
 70
     1
102
RTVSPost2010Prop47
 90
       50
102
RTVSPost2010PropOp47
 70
     1
102
RTVSPost2010Prop48
 90
       50
102
RTVSPost2010PropOp48
 70
     1
102
RTVSPost2010Prop49
280
     0
102
RTVSPost2010PropOp49
 70
     1
102
RTVSPost2010Prop50
 90
       50
102
RTVSPost2010PropOp50
 70
     1
102
RTVSPost2010Prop51ColorIndex
 90
      256
102
RTVSPost2010Prop51ColorRGB
 90
-16777216
102
RTVSPost2010PropOp51
 70
     0
102
RTVSPost2010Prop52
140
1.0
102
RTVSPost2010PropOp52
 70
     0
102
RTVSPost2010Prop53
 90
        2
102
RTVSPost2010PropOp53
 70
     1
102
RTVSPost2010Prop54
  1
strokes_ogs.tif
102
RTVSPost2010PropOp54
 70
     1
102
RTVSPost2010Prop55
280
     0
102
RTVSPost2010PropOp55
 70
     1
102
RTVSPost2010Prop56
140
1.0
102
RTVSPost2010PropOp56
 70
     1
102
RTVSPost2010Prop57
140
1.0
102
RTVSPost2010PropOp57
 70
     1
102
RTVSPropertyOp0
 70
     1
102
RTVSPropertyOp1
 70
     1
102
RTVSPropertyOp2
 70
     1
102
RTVSPropertyOp3
 70
     1
102
RTVSPropertyOp4
 70
     1
102
RTVSPropertyOp5
 70
     1
102
RTVSPropertyOp6
 70
     1
102
RTVSPropertyOp7
 70
     1
102
RTVSPropertyOp8
 70
     1
102
RTVSPropertyOp9
 70
     1
102
RTVSPropertyOp10
 70
     1
102
RTVSPropertyOp11
 70
     1
102
RTVSPropertyOp12
 70
     1
102
RTVSPropertyOp13
 70
     1
102
RTVSPropertyOp14
 70
     1
102
RTVSPropertyOp15
 70
     1
102
RTVSPropertyOp16
 70
     1
102
RTVSPropertyOp17
 70
     1
102
RTVSPropertyOp18
 70
     1
102
RTVSPropertyOp19
 70
     1
102
RTVSPropertyOp20
 70
     1
102
RTVSPropertyOp21
 70
     1
102
RTVSPropertyOp22
 70
     1
102
RTVSPropertyOp23
 70
     1
102
RTVSPropertyOp24
 70
     1
102
RTVSPropertyOp25
 70
     1
102
RTVSPropertyOp26
 70
     1
102
RTVSPropertyOp27
 70
     1
102
RTVSPropertyOp28
 70
     1
102
RTVSPropertyOp29
 70
     1
102
RTVSPropertyOp30
 70
     1
102
RTVSPropertyOp31
 70
     1
102
RTVSPropertyOp32
 70
     1
102
RTVSPropertyOp33
 70
     1
102
RTVSPropertyOp34
 70
     1
102
RTVSPropertyOp35
 70
     1
102
RTVSPropertyOp36
 70
     1
102
RTVSPropertyOp37
 70
     1
102
RTVSPropertyOp38
 70
     1
102
RTVSPropertyOp39
 70
     1
102
RTVSPropertyOp40
 70
     1
102
RTVSPropertyOp41
 70
     1
102
RTVSPropertyOp42
 70
     1
102
RTVSPropertyOp43
 70
     1
102
RTVSPropertyOp44
 70
     1
102
RTVSPropertyOp45
 70
     1
102
RTVSPropertyOp46
 70
     1
102
RTVSPropertyOp47
 70
     1
102
RTVSPropertyOp48
 70
     1
102
RTVSPropertyOp49
 70
     1
102
RTVSPropertyOp50
 70
     1
102
RTVSPropertyOp51
 70
     0
102
RTVSPropertyOp52
 70
     0
102
RTVSPropertyOp53
 70
     1
102
RTVSPropertyOp54
 70
     1
102
RTVSPropertyOp55
 70
     1
102
RTVSPropertyOp56
 70
     1
102
RTVSPropertyOp57
 70
     1
102
RTVSPropertyOp58
 70
     1
102
RTVSPropertyOp59
 70
     1
102
RTVSPropertyOp60
 70
     1
102
RTVSPropertyOp61
 70
     1
102
RTVSPropertyOp62
 70
     1
  0
XRECORD
  5
2AC6
102
{ACAD_REACTORS
330
2AC5
102
}
330
2AC5
100
AcDbXrecord
280
     1
102
RTVSPost2010Prop28
280
     0
102
RTVSPost2010PropOp28
 70
     1
102
RTVSPost2010Prop29
280
     1
102
RTVSPost2010PropOp29
 70
     1
102
RTVSPost2010Prop30
280
     1
102
RTVSPost2010PropOp30
 70
     1
102
RTVSPost2010Prop31
280
     0
102
RTVSPost2010PropOp31
 70
     1
102
RTVSPost2010Prop32
280
     0
102
RTVSPost2010PropOp32
 70
     1
102
RTVSPost2010Prop33
280
     0
102
RTVSPost2010PropOp33
 70
     1
102
RTVSPost2010Prop34
280
     0
102
RTVSPost2010PropOp34
 70
     1
102
RTVSPost2010Prop35
280
     0
102
RTVSPost2010PropOp35
 70
     1
102
RTVSPost2010Prop36
280
     0
102
RTVSPost2010PropOp36
 70
     1
102
RTVSPost2010Prop37
 90
       50
102
RTVSPost2010PropOp37
 70
     1
102
RTVSPost2010Prop38
140
0.0
102
RTVSPost2010PropOp38
 70
     1
102
RTVSPost2010Prop39
140
1.0
102
RTVSPost2010PropOp39
 70
     1
102
RTVSPost2010Prop40
 90
        0
102
RTVSPost2010PropOp40
 70
     1
102
RTVSPost2010Prop41ColorIndex
 90
       18
102
RTVSPost2010Prop41ColorRGB
 90
        0
102
RTVSPost2010PropOp41
 70
     1
102
RTVSPost2010Prop42
 90
       50
102
RTVSPost2010PropOp42
 70
     1
102
RTVSPost2010Prop43
 90
        3
102
RTVSPost2010PropOp43
 70
     1
102
RTVSPost2010Prop44ColorIndex
 90
        5
102
RTVSPost2010Prop44ColorRGB
 90
      255
102
RTVSPost2010PropOp44
 70
     1
102
RTVSPost2010Prop45
280
     0
102
RTVSPost2010PropOp45
 70
     1
102
RTVSPost2010Prop46
 90
       50
102
RTVSPost2010PropOp46
 70
     1
102
RTVSPost2010Prop47
 90
       50
102
RTVSPost2010PropOp47
 70
     1
102
RTVSPost2010Prop48
 90
       50
102
RTVSPost2010PropOp48
 70
     1
102
RTVSPost2010Prop49
280
     0
102
RTVSPost2010PropOp49
 70
     1
102
RTVSPost2010Prop50
 90
       50
102
RTVSPost2010PropOp50
 70
     1
102
RTVSPost2010Prop51ColorIndex
 90
      256
102
RTVSPost2010Prop51ColorRGB
 90
-16777216
102
RTVSPost2010PropOp51
 70
     0
102
RTVSPost2010Prop52
140
1.0
102
RTVSPost2010PropOp52
 70
     0
102
RTVSPost2010Prop53
 90
        2
102
RTVSPost2010PropOp53
 70
     1
102
RTVSPost2010Prop54
  1
strokes_ogs.tif
102
RTVSPost2010PropOp54
 70
     1
102
RTVSPost2010Prop55
280
     0
102
RTVSPost2010PropOp55
 70
     1
102
RTVSPost2010Prop56
140
1.0
102
RTVSPost2010PropOp56
 70
     1
102
RTVSPost2010Prop57
140
1.0
102
RTVSPost2010PropOp57
 70
     1
102
RTVSPropertyOp0
 70
     0
102
RTVSPropertyOp1
 70
     0
102
RTVSPropertyOp2
 70
     0
102
RTVSPropertyOp3
 70
     0
102
RTVSPropertyOp4
 70
     0
102
RTVSPropertyOp5
 70
     0
102
RTVSPropertyOp6
 70
     0
102
RTVSPropertyOp7
 70
     0
102
RTVSPropertyOp8
 70
     0
102
RTVSPropertyOp9
 70
     0
102
RTVSPropertyOp10
 70
     0
102
RTVSPropertyOp11
 70
     0
102
RTVSPropertyOp12
 70
     0
102
RTVSPropertyOp13
 70
     0
102
RTVSPropertyOp14
 70
     2
102
RTVSPropertyOp15
 70
     0
102
RTVSPropertyOp16
 70
     0
102
RTVSPropertyOp17
 70
     0
102
RTVSPropertyOp18
 70
     0
102
RTVSPropertyOp19
 70
     0
102
RTVSPropertyOp20
 70
     0
102
RTVSPropertyOp21
 70
     0
102
RTVSPropertyOp22
 70
     0
102
RTVSPropertyOp23
 70
     0
102
RTVSPropertyOp24
 70
     0
102
RTVSPropertyOp25
 70
     0
102
RTVSPropertyOp26
 70
     0
102
RTVSPropertyOp27
 70
     0
102
RTVSPropertyOp28
 70
     1
102
RTVSPropertyOp29
 70
     1
102
RTVSPropertyOp30
 70
     1
102
RTVSPropertyOp31
 70
     1
102
RTVSPropertyOp32
 70
     1
102
RTVSPropertyOp33
 70
     1
102
RTVSPropertyOp34
 70
     1
102
RTVSPropertyOp35
 70
     1
102
RTVSPropertyOp36
 70
     1
102
RTVSPropertyOp37
 70
     1
102
RTVSPropertyOp38
 70
     1
102
RTVSPropertyOp39
 70
     1
102
RTVSPropertyOp40
 70
     1
102
RTVSPropertyOp41
 70
     1
102
RTVSPropertyOp42
 70
     1
102
RTVSPropertyOp43
 70
     1
102
RTVSPropertyOp44
 70
     1
102
RTVSPropertyOp45
 70
     1
102
RTVSPropertyOp46
 70
     1
102
RTVSPropertyOp47
 70
     1
102
RTVSPropertyOp48
 70
     1
102
RTVSPropertyOp49
 70
     1
102
RTVSPropertyOp50
 70
     1
102
RTVSPropertyOp51
 70
     0
102
RTVSPropertyOp52
 70
     0
102
RTVSPropertyOp53
 70
     1
102
RTVSPropertyOp54
 70
     1
102
RTVSPropertyOp55
 70
     1
102
RTVSPropertyOp56
 70
     1
102
RTVSPropertyOp57
 70
     1
102
RTVSPropertyOp58
 70
     1
102
RTVSPropertyOp59
 70
     1
102
RTVSPropertyOp60
 70
     1
102
RTVSPropertyOp61
 70
     1
102
RTVSPropertyOp62
 70
     1
  0
XRECORD
  5
2AC0
102
{ACAD_REACTORS
330
2ABF
102
}
330
2ABF
100
AcDbXrecord
280
     1
102
RTVSPost2010Prop28
280
     0
102
RTVSPost2010PropOp28
 70
     1
102
RTVSPost2010Prop29
280
     1
102
RTVSPost2010PropOp29
 70
     1
102
RTVSPost2010Prop30
280
     1
102
RTVSPost2010PropOp30
 70
     1
102
RTVSPost2010Prop31
280
     0
102
RTVSPost2010PropOp31
 70
     1
102
RTVSPost2010Prop32
280
     0
102
RTVSPost2010PropOp32
 70
     1
102
RTVSPost2010Prop33
280
     0
102
RTVSPost2010PropOp33
 70
     1
102
RTVSPost2010Prop34
280
     0
102
RTVSPost2010PropOp34
 70
     1
102
RTVSPost2010Prop35
280
     0
102
RTVSPost2010PropOp35
 70
     1
102
RTVSPost2010Prop36
280
     0
102
RTVSPost2010PropOp36
 70
     1
102
RTVSPost2010Prop37
 90
       50
102
RTVSPost2010PropOp37
 70
     1
102
RTVSPost2010Prop38
140
0.0
102
RTVSPost2010PropOp38
 70
     1
102
RTVSPost2010Prop39
140
1.0
102
RTVSPost2010PropOp39
 70
     1
102
RTVSPost2010Prop40
 90
        0
102
RTVSPost2010PropOp40
 70
     1
102
RTVSPost2010Prop41ColorIndex
 90
       18
102
RTVSPost2010Prop41ColorRGB
 90
        0
102
RTVSPost2010PropOp41
 70
     1
102
RTVSPost2010Prop42
 90
       50
102
RTVSPost2010PropOp42
 70
     1
102
RTVSPost2010Prop43
 90
        3
102
RTVSPost2010PropOp43
 70
     1
102
RTVSPost2010Prop44ColorIndex
 90
        5
102
RTVSPost2010Prop44ColorRGB
 90
      255
102
RTVSPost2010PropOp44
 70
     1
102
RTVSPost2010Prop45
280
     0
102
RTVSPost2010PropOp45
 70
     1
102
RTVSPost2010Prop46
 90
       50
102
RTVSPost2010PropOp46
 70
     1
102
RTVSPost2010Prop47
 90
       50
102
RTVSPost2010PropOp47
 70
     1
102
RTVSPost2010Prop48
 90
       50
102
RTVSPost2010PropOp48
 70
     1
102
RTVSPost2010Prop49
280
     0
102
RTVSPost2010PropOp49
 70
     1
102
RTVSPost2010Prop50
 90
       50
102
RTVSPost2010PropOp50
 70
     1
102
RTVSPost2010Prop51ColorIndex
 90
      256
102
RTVSPost2010Prop51ColorRGB
 90
-16777216
102
RTVSPost2010PropOp51
 70
     0
102
RTVSPost2010Prop52
140
1.0
102
RTVSPost2010PropOp52
 70
     0
102
RTVSPost2010Prop53
 90
        2
102
RTVSPost2010PropOp53
 70
     1
102
RTVSPost2010Prop54
  1
strokes_ogs.tif
102
RTVSPost2010PropOp54
 70
     1
102
RTVSPost2010Prop55
280
     0
102
RTVSPost2010PropOp55
 70
     1
102
RTVSPost2010Prop56
140
1.0
102
RTVSPost2010PropOp56
 70
     1
102
RTVSPost2010Prop57
140
1.0
102
RTVSPost2010PropOp57
 70
     1
102
RTVSPropertyOp0
 70
     1
102
RTVSPropertyOp1
 70
     1
102
RTVSPropertyOp2
 70
     1
102
RTVSPropertyOp3
 70
     1
102
RTVSPropertyOp4
 70
     1
102
RTVSPropertyOp5
 70
     1
102
RTVSPropertyOp6
 70
     1
102
RTVSPropertyOp7
 70
     1
102
RTVSPropertyOp8
 70
     1
102
RTVSPropertyOp9
 70
     1
102
RTVSPropertyOp10
 70
     1
102
RTVSPropertyOp11
 70
     1
102
RTVSPropertyOp12
 70
     1
102
RTVSPropertyOp13
 70
     1
102
RTVSPropertyOp14
 70
     1
102
RTVSPropertyOp15
 70
     1
102
RTVSPropertyOp16
 70
     1
102
RTVSPropertyOp17
 70
     1
102
RTVSPropertyOp18
 70
     1
102
RTVSPropertyOp19
 70
     1
102
RTVSPropertyOp20
 70
     1
102
RTVSPropertyOp21
 70
     1
102
RTVSPropertyOp22
 70
     1
102
RTVSPropertyOp23
 70
     1
102
RTVSPropertyOp24
 70
     1
102
RTVSPropertyOp25
 70
     1
102
RTVSPropertyOp26
 70
     1
102
RTVSPropertyOp27
 70
     1
102
RTVSPropertyOp28
 70
     1
102
RTVSPropertyOp29
 70
     1
102
RTVSPropertyOp30
 70
     1
102
RTVSPropertyOp31
 70
     1
102
RTVSPropertyOp32
 70
     1
102
RTVSPropertyOp33
 70
     1
102
RTVSPropertyOp34
 70
     1
102
RTVSPropertyOp35
 70
     1
102
RTVSPropertyOp36
 70
     1
102
RTVSPropertyOp37
 70
     1
102
RTVSPropertyOp38
 70
     1
102
RTVSPropertyOp39
 70
     1
102
RTVSPropertyOp40
 70
     1
102
RTVSPropertyOp41
 70
     1
102
RTVSPropertyOp42
 70
     1
102
RTVSPropertyOp43
 70
     1
102
RTVSPropertyOp44
 70
     1
102
RTVSPropertyOp45
 70
     1
102
RTVSPropertyOp46
 70
     1
102
RTVSPropertyOp47
 70
     1
102
RTVSPropertyOp48
 70
     1
102
RTVSPropertyOp49
 70
     1
102
RTVSPropertyOp50
 70
     1
102
RTVSPropertyOp51
 70
     0
102
RTVSPropertyOp52
 70
     0
102
RTVSPropertyOp53
 70
     1
102
RTVSPropertyOp54
 70
     1
102
RTVSPropertyOp55
 70
     1
102
RTVSPropertyOp56
 70
     1
102
RTVSPropertyOp57
 70
     1
102
RTVSPropertyOp58
 70
     1
102
RTVSPropertyOp59
 70
     1
102
RTVSPropertyOp60
 70
     1
102
RTVSPropertyOp61
 70
     1
102
RTVSPropertyOp62
 70
     1
  0
XRECORD
  5
2AC8
102
{ACAD_REACTORS
330
2AC7
102
}
330
2AC7
100
AcDbXrecord
280
     1
102
RTVSPost2010Prop28
280
     0
102
RTVSPost2010PropOp28
 70
     1
102
RTVSPost2010Prop29
280
     1
102
RTVSPost2010PropOp29
 70
     1
102
RTVSPost2010Prop30
280
     1
102
RTVSPost2010PropOp30
 70
     1
102
RTVSPost2010Prop31
280
     0
102
RTVSPost2010PropOp31
 70
     1
102
RTVSPost2010Prop32
280
     0
102
RTVSPost2010PropOp32
 70
     1
102
RTVSPost2010Prop33
280
     0
102
RTVSPost2010PropOp33
 70
     1
102
RTVSPost2010Prop34
280
     0
102
RTVSPost2010PropOp34
 70
     1
102
RTVSPost2010Prop35
280
     0
102
RTVSPost2010PropOp35
 70
     1
102
RTVSPost2010Prop36
280
     0
102
RTVSPost2010PropOp36
 70
     1
102
RTVSPost2010Prop37
 90
       50
102
RTVSPost2010PropOp37
 70
     1
102
RTVSPost2010Prop38
140
0.0
102
RTVSPost2010PropOp38
 70
     1
102
RTVSPost2010Prop39
140
1.0
102
RTVSPost2010PropOp39
 70
     1
102
RTVSPost2010Prop40
 90
        0
102
RTVSPost2010PropOp40
 70
     1
102
RTVSPost2010Prop41ColorIndex
 90
       18
102
RTVSPost2010Prop41ColorRGB
 90
        0
102
RTVSPost2010PropOp41
 70
     1
102
RTVSPost2010Prop42
 90
       50
102
RTVSPost2010PropOp42
 70
     1
102
RTVSPost2010Prop43
 90
        3
102
RTVSPost2010PropOp43
 70
     1
102
RTVSPost2010Prop44ColorIndex
 90
        5
102
RTVSPost2010Prop44ColorRGB
 90
      255
102
RTVSPost2010PropOp44
 70
     1
102
RTVSPost2010Prop45
280
     0
102
RTVSPost2010PropOp45
 70
     1
102
RTVSPost2010Prop46
 90
       50
102
RTVSPost2010PropOp46
 70
     1
102
RTVSPost2010Prop47
 90
       50
102
RTVSPost2010PropOp47
 70
     1
102
RTVSPost2010Prop48
 90
       50
102
RTVSPost2010PropOp48
 70
     1
102
RTVSPost2010Prop49
280
     0
102
RTVSPost2010PropOp49
 70
     1
102
RTVSPost2010Prop50
 90
       50
102
RTVSPost2010PropOp50
 70
     1
102
RTVSPost2010Prop51ColorIndex
 90
      256
102
RTVSPost2010Prop51ColorRGB
 90
-16777216
102
RTVSPost2010PropOp51
 70
     0
102
RTVSPost2010Prop52
140
1.0
102
RTVSPost2010PropOp52
 70
     0
102
RTVSPost2010Prop53
 90
        2
102
RTVSPost2010PropOp53
 70
     1
102
RTVSPost2010Prop54
  1
strokes_ogs.tif
102
RTVSPost2010PropOp54
 70
     1
102
RTVSPost2010Prop55
280
     0
102
RTVSPost2010PropOp55
 70
     1
102
RTVSPost2010Prop56
140
1.0
102
RTVSPost2010PropOp56
 70
     1
102
RTVSPost2010Prop57
140
1.0
102
RTVSPost2010PropOp57
 70
     1
102
RTVSPropertyOp0
 70
     0
102
RTVSPropertyOp1
 70
     0
102
RTVSPropertyOp2
 70
     0
102
RTVSPropertyOp3
 70
     0
102
RTVSPropertyOp4
 70
     0
102
RTVSPropertyOp5
 70
     0
102
RTVSPropertyOp6
 70
     0
102
RTVSPropertyOp7
 70
     0
102
RTVSPropertyOp8
 70
     0
102
RTVSPropertyOp9
 70
     0
102
RTVSPropertyOp10
 70
     0
102
RTVSPropertyOp11
 70
     0
102
RTVSPropertyOp12
 70
     0
102
RTVSPropertyOp13
 70
     0
102
RTVSPropertyOp14
 70
     2
102
RTVSPropertyOp15
 70
     0
102
RTVSPropertyOp16
 70
     0
102
RTVSPropertyOp17
 70
     0
102
RTVSPropertyOp18
 70
     0
102
RTVSPropertyOp19
 70
     0
102
RTVSPropertyOp20
 70
     0
102
RTVSPropertyOp21
 70
     0
102
RTVSPropertyOp22
 70
     0
102
RTVSPropertyOp23
 70
     0
102
RTVSPropertyOp24
 70
     0
102
RTVSPropertyOp25
 70
     0
102
RTVSPropertyOp26
 70
     0
102
RTVSPropertyOp27
 70
     0
102
RTVSPropertyOp28
 70
     1
102
RTVSPropertyOp29
 70
     1
102
RTVSPropertyOp30
 70
     1
102
RTVSPropertyOp31
 70
     1
102
RTVSPropertyOp32
 70
     1
102
RTVSPropertyOp33
 70
     1
102
RTVSPropertyOp34
 70
     1
102
RTVSPropertyOp35
 70
     1
102
RTVSPropertyOp36
 70
     1
102
RTVSPropertyOp37
 70
     1
102
RTVSPropertyOp38
 70
     1
102
RTVSPropertyOp39
 70
     1
102
RTVSPropertyOp40
 70
     1
102
RTVSPropertyOp41
 70
     1
102
RTVSPropertyOp42
 70
     1
102
RTVSPropertyOp43
 70
     1
102
RTVSPropertyOp44
 70
     1
102
RTVSPropertyOp45
 70
     1
102
RTVSPropertyOp46
 70
     1
102
RTVSPropertyOp47
 70
     1
102
RTVSPropertyOp48
 70
     1
102
RTVSPropertyOp49
 70
     1
102
RTVSPropertyOp50
 70
     1
102
RTVSPropertyOp51
 70
     0
102
RTVSPropertyOp52
 70
     0
102
RTVSPropertyOp53
 70
     1
102
RTVSPropertyOp54
 70
     1
102
RTVSPropertyOp55
 70
     1
102
RTVSPropertyOp56
 70
     1
102
RTVSPropertyOp57
 70
     1
102
RTVSPropertyOp58
 70
     1
102
RTVSPropertyOp59
 70
     1
102
RTVSPropertyOp60
 70
     1
102
RTVSPropertyOp61
 70
     1
102
RTVSPropertyOp62
 70
     1
  0
XRECORD
  5
2AB8
102
{ACAD_REACTORS
330
2AB7
102
}
330
2AB7
100
AcDbXrecord
280
     1
102
RTVSPost2010Prop28
280
     0
102
RTVSPost2010PropOp28
 70
     1
102
RTVSPost2010Prop29
280
     1
102
RTVSPost2010PropOp29
 70
     1
102
RTVSPost2010Prop30
280
     1
102
RTVSPost2010PropOp30
 70
     1
102
RTVSPost2010Prop31
280
     0
102
RTVSPost2010PropOp31
 70
     1
102
RTVSPost2010Prop32
280
     0
102
RTVSPost2010PropOp32
 70
     1
102
RTVSPost2010Prop33
280
     0
102
RTVSPost2010PropOp33
 70
     1
102
RTVSPost2010Prop34
280
     0
102
RTVSPost2010PropOp34
 70
     1
102
RTVSPost2010Prop35
280
     0
102
RTVSPost2010PropOp35
 70
     1
102
RTVSPost2010Prop36
280
     0
102
RTVSPost2010PropOp36
 70
     1
102
RTVSPost2010Prop37
 90
       50
102
RTVSPost2010PropOp37
 70
     1
102
RTVSPost2010Prop38
140
0.0
102
RTVSPost2010PropOp38
 70
     1
102
RTVSPost2010Prop39
140
1.0
102
RTVSPost2010PropOp39
 70
     1
102
RTVSPost2010Prop40
 90
        0
102
RTVSPost2010PropOp40
 70
     1
102
RTVSPost2010Prop41ColorIndex
 90
       18
102
RTVSPost2010Prop41ColorRGB
 90
        0
102
RTVSPost2010PropOp41
 70
     1
102
RTVSPost2010Prop42
 90
       50
102
RTVSPost2010PropOp42
 70
     1
102
RTVSPost2010Prop43
 90
        3
102
RTVSPost2010PropOp43
 70
     1
102
RTVSPost2010Prop44ColorIndex
 90
        5
102
RTVSPost2010Prop44ColorRGB
 90
      255
102
RTVSPost2010PropOp44
 70
     1
102
RTVSPost2010Prop45
280
     0
102
RTVSPost2010PropOp45
 70
     1
102
RTVSPost2010Prop46
 90
       50
102
RTVSPost2010PropOp46
 70
     1
102
RTVSPost2010Prop47
 90
       50
102
RTVSPost2010PropOp47
 70
     1
102
RTVSPost2010Prop48
 90
       50
102
RTVSPost2010PropOp48
 70
     1
102
RTVSPost2010Prop49
280
     0
102
RTVSPost2010PropOp49
 70
     1
102
RTVSPost2010Prop50
 90
       50
102
RTVSPost2010PropOp50
 70
     1
102
RTVSPost2010Prop51ColorIndex
 90
      256
102
RTVSPost2010Prop51ColorRGB
 90
-16777216
102
RTVSPost2010PropOp51
 70
     0
102
RTVSPost2010Prop52
140
1.0
102
RTVSPost2010PropOp52
 70
     0
102
RTVSPost2010Prop53
 90
        2
102
RTVSPost2010PropOp53
 70
     1
102
RTVSPost2010Prop54
  1
strokes_ogs.tif
102
RTVSPost2010PropOp54
 70
     1
102
RTVSPost2010Prop55
280
     0
102
RTVSPost2010PropOp55
 70
     1
102
RTVSPost2010Prop56
140
1.0
102
RTVSPost2010PropOp56
 70
     1
102
RTVSPost2010Prop57
140
1.0
102
RTVSPost2010PropOp57
 70
     1
102
RTVSPropertyOp0
 70
     1
102
RTVSPropertyOp1
 70
     1
102
RTVSPropertyOp2
 70
     1
102
RTVSPropertyOp3
 70
     1
102
RTVSPropertyOp4
 70
     1
102
RTVSPropertyOp5
 70
     1
102
RTVSPropertyOp6
 70
     1
102
RTVSPropertyOp7
 70
     1
102
RTVSPropertyOp8
 70
     1
102
RTVSPropertyOp9
 70
     1
102
RTVSPropertyOp10
 70
     1
102
RTVSPropertyOp11
 70
     1
102
RTVSPropertyOp12
 70
     1
102
RTVSPropertyOp13
 70
     1
102
RTVSPropertyOp14
 70
     1
102
RTVSPropertyOp15
 70
     1
102
RTVSPropertyOp16
 70
     1
102
RTVSPropertyOp17
 70
     1
102
RTVSPropertyOp18
 70
     1
102
RTVSPropertyOp19
 70
     1
102
RTVSPropertyOp20
 70
     1
102
RTVSPropertyOp21
 70
     1
102
RTVSPropertyOp22
 70
     1
102
RTVSPropertyOp23
 70
     1
102
RTVSPropertyOp24
 70
     1
102
RTVSPropertyOp25
 70
     1
102
RTVSPropertyOp26
 70
     1
102
RTVSPropertyOp27
 70
     1
102
RTVSPropertyOp28
 70
     1
102
RTVSPropertyOp29
 70
     1
102
RTVSPropertyOp30
 70
     1
102
RTVSPropertyOp31
 70
     1
102
RTVSPropertyOp32
 70
     1
102
RTVSPropertyOp33
 70
     1
102
RTVSPropertyOp34
 70
     1
102
RTVSPropertyOp35
 70
     1
102
RTVSPropertyOp36
 70
     1
102
RTVSPropertyOp37
 70
     1
102
RTVSPropertyOp38
 70
     1
102
RTVSPropertyOp39
 70
     1
102
RTVSPropertyOp40
 70
     1
102
RTVSPropertyOp41
 70
     1
102
RTVSPropertyOp42
 70
     1
102
RTVSPropertyOp43
 70
     1
102
RTVSPropertyOp44
 70
     1
102
RTVSPropertyOp45
 70
     1
102
RTVSPropertyOp46
 70
     1
102
RTVSPropertyOp47
 70
     1
102
RTVSPropertyOp48
 70
     1
102
RTVSPropertyOp49
 70
     1
102
RTVSPropertyOp50
 70
     1
102
RTVSPropertyOp51
 70
     0
102
RTVSPropertyOp52
 70
     0
102
RTVSPropertyOp53
 70
     1
102
RTVSPropertyOp54
 70
     1
102
RTVSPropertyOp55
 70
     1
102
RTVSPropertyOp56
 70
     1
102
RTVSPropertyOp57
 70
     1
102
RTVSPropertyOp58
 70
     1
102
RTVSPropertyOp59
 70
     1
102
RTVSPropertyOp60
 70
     1
102
RTVSPropertyOp61
 70
     1
102
RTVSPropertyOp62
 70
     1
  0
XRECORD
  5
2AD8
102
{ACAD_REACTORS
330
2AD7
102
}
330
2AD7
100
AcDbXrecord
280
     1
102
RTVSPost2010Prop28
280
     0
102
RTVSPost2010PropOp28
 70
     1
102
RTVSPost2010Prop29
280
     1
102
RTVSPost2010PropOp29
 70
     1
102
RTVSPost2010Prop30
280
     1
102
RTVSPost2010PropOp30
 70
     1
102
RTVSPost2010Prop31
280
     0
102
RTVSPost2010PropOp31
 70
     1
102
RTVSPost2010Prop32
280
     0
102
RTVSPost2010PropOp32
 70
     1
102
RTVSPost2010Prop33
280
     0
102
RTVSPost2010PropOp33
 70
     1
102
RTVSPost2010Prop34
280
     0
102
RTVSPost2010PropOp34
 70
     1
102
RTVSPost2010Prop35
280
     0
102
RTVSPost2010PropOp35
 70
     1
102
RTVSPost2010Prop36
280
     0
102
RTVSPost2010PropOp36
 70
     1
102
RTVSPost2010Prop37
 90
       50
102
RTVSPost2010PropOp37
 70
     1
102
RTVSPost2010Prop38
140
0.0
102
RTVSPost2010PropOp38
 70
     1
102
RTVSPost2010Prop39
140
1.0
102
RTVSPost2010PropOp39
 70
     1
102
RTVSPost2010Prop40
 90
        0
102
RTVSPost2010PropOp40
 70
     1
102
RTVSPost2010Prop41ColorIndex
 90
       18
102
RTVSPost2010Prop41ColorRGB
 90
        0
102
RTVSPost2010PropOp41
 70
     1
102
RTVSPost2010Prop42
 90
       50
102
RTVSPost2010PropOp42
 70
     1
102
RTVSPost2010Prop43
 90
        3
102
RTVSPost2010PropOp43
 70
     1
102
RTVSPost2010Prop44ColorIndex
 90
        5
102
RTVSPost2010Prop44ColorRGB
 90
      255
102
RTVSPost2010PropOp44
 70
     1
102
RTVSPost2010Prop45
280
     0
102
RTVSPost2010PropOp45
 70
     1
102
RTVSPost2010Prop46
 90
       50
102
RTVSPost2010PropOp46
 70
     1
102
RTVSPost2010Prop47
 90
       50
102
RTVSPost2010PropOp47
 70
     1
102
RTVSPost2010Prop48
 90
       50
102
RTVSPost2010PropOp48
 70
     1
102
RTVSPost2010Prop49
280
     0
102
RTVSPost2010PropOp49
 70
     1
102
RTVSPost2010Prop50
 90
       50
102
RTVSPost2010PropOp50
 70
     1
102
RTVSPost2010Prop51ColorIndex
 90
      256
102
RTVSPost2010Prop51ColorRGB
 90
-16777216
102
RTVSPost2010PropOp51
 70
     0
102
RTVSPost2010Prop52
140
1.0
102
RTVSPost2010PropOp52
 70
     0
102
RTVSPost2010Prop53
 90
        2
102
RTVSPost2010PropOp53
 70
     1
102
RTVSPost2010Prop54
  1
strokes_ogs.tif
102
RTVSPost2010PropOp54
 70
     1
102
RTVSPost2010Prop55
280
     0
102
RTVSPost2010PropOp55
 70
     1
102
RTVSPost2010Prop56
140
1.0
102
RTVSPost2010PropOp56
 70
     1
102
RTVSPost2010Prop57
140
1.0
102
RTVSPost2010PropOp57
 70
     1
102
RTVSPropertyOp0
 70
     1
102
RTVSPropertyOp1
 70
     1
102
RTVSPropertyOp2
 70
     1
102
RTVSPropertyOp3
 70
     1
102
RTVSPropertyOp4
 70
     1
102
RTVSPropertyOp5
 70
     1
102
RTVSPropertyOp6
 70
     1
102
RTVSPropertyOp7
 70
     1
102
RTVSPropertyOp8
 70
     1
102
RTVSPropertyOp9
 70
     1
102
RTVSPropertyOp10
 70
     1
102
RTVSPropertyOp11
 70
     1
102
RTVSPropertyOp12
 70
     1
102
RTVSPropertyOp13
 70
     1
102
RTVSPropertyOp14
 70
     1
102
RTVSPropertyOp15
 70
     1
102
RTVSPropertyOp16
 70
     1
102
RTVSPropertyOp17
 70
     1
102
RTVSPropertyOp18
 70
     1
102
RTVSPropertyOp19
 70
     1
102
RTVSPropertyOp20
 70
     1
102
RTVSPropertyOp21
 70
     1
102
RTVSPropertyOp22
 70
     1
102
RTVSPropertyOp23
 70
     1
102
RTVSPropertyOp24
 70
     1
102
RTVSPropertyOp25
 70
     1
102
RTVSPropertyOp26
 70
     1
102
RTVSPropertyOp27
 70
     1
102
RTVSPropertyOp28
 70
     1
102
RTVSPropertyOp29
 70
     1
102
RTVSPropertyOp30
 70
     1
102
RTVSPropertyOp31
 70
     1
102
RTVSPropertyOp32
 70
     1
102
RTVSPropertyOp33
 70
     1
102
RTVSPropertyOp34
 70
     1
102
RTVSPropertyOp35
 70
     1
102
RTVSPropertyOp36
 70
     1
102
RTVSPropertyOp37
 70
     1
102
RTVSPropertyOp38
 70
     1
102
RTVSPropertyOp39
 70
     1
102
RTVSPropertyOp40
 70
     1
102
RTVSPropertyOp41
 70
     1
102
RTVSPropertyOp42
 70
     1
102
RTVSPropertyOp43
 70
     1
102
RTVSPropertyOp44
 70
     1
102
RTVSPropertyOp45
 70
     1
102
RTVSPropertyOp46
 70
     1
102
RTVSPropertyOp47
 70
     1
102
RTVSPropertyOp48
 70
     1
102
RTVSPropertyOp49
 70
     1
102
RTVSPropertyOp50
 70
     1
102
RTVSPropertyOp51
 70
     0
102
RTVSPropertyOp52
 70
     0
102
RTVSPropertyOp53
 70
     1
102
RTVSPropertyOp54
 70
     1
102
RTVSPropertyOp55
 70
     1
102
RTVSPropertyOp56
 70
     1
102
RTVSPropertyOp57
 70
     1
102
RTVSPropertyOp58
 70
     1
102
RTVSPropertyOp59
 70
     1
102
RTVSPropertyOp60
 70
     1
102
RTVSPropertyOp61
 70
     1
102
RTVSPropertyOp62
 70
     1
  0
XRECORD
  5
2AD6
102
{ACAD_REACTORS
330
2AD5
102
}
330
2AD5
100
AcDbXrecord
280
     1
102
RTVSPost2010Prop28
280
     0
102
RTVSPost2010PropOp28
 70
     1
102
RTVSPost2010Prop29
280
     1
102
RTVSPost2010PropOp29
 70
     1
102
RTVSPost2010Prop30
280
     1
102
RTVSPost2010PropOp30
 70
     1
102
RTVSPost2010Prop31
280
     0
102
RTVSPost2010PropOp31
 70
     1
102
RTVSPost2010Prop32
280
     0
102
RTVSPost2010PropOp32
 70
     1
102
RTVSPost2010Prop33
280
     0
102
RTVSPost2010PropOp33
 70
     1
102
RTVSPost2010Prop34
280
     0
102
RTVSPost2010PropOp34
 70
     1
102
RTVSPost2010Prop35
280
     0
102
RTVSPost2010PropOp35
 70
     1
102
RTVSPost2010Prop36
280
     0
102
RTVSPost2010PropOp36
 70
     1
102
RTVSPost2010Prop37
 90
       50
102
RTVSPost2010PropOp37
 70
     1
102
RTVSPost2010Prop38
140
0.0
102
RTVSPost2010PropOp38
 70
     1
102
RTVSPost2010Prop39
140
1.0
102
RTVSPost2010PropOp39
 70
     1
102
RTVSPost2010Prop40
 90
        0
102
RTVSPost2010PropOp40
 70
     1
102
RTVSPost2010Prop41ColorIndex
 90
       18
102
RTVSPost2010Prop41ColorRGB
 90
        0
102
RTVSPost2010PropOp41
 70
     1
102
RTVSPost2010Prop42
 90
       50
102
RTVSPost2010PropOp42
 70
     1
102
RTVSPost2010Prop43
 90
        3
102
RTVSPost2010PropOp43
 70
     1
102
RTVSPost2010Prop44ColorIndex
 90
        5
102
RTVSPost2010Prop44ColorRGB
 90
      255
102
RTVSPost2010PropOp44
 70
     1
102
RTVSPost2010Prop45
280
     0
102
RTVSPost2010PropOp45
 70
     1
102
RTVSPost2010Prop46
 90
       50
102
RTVSPost2010PropOp46
 70
     1
102
RTVSPost2010Prop47
 90
       50
102
RTVSPost2010PropOp47
 70
     1
102
RTVSPost2010Prop48
 90
       50
102
RTVSPost2010PropOp48
 70
     1
102
RTVSPost2010Prop49
280
     0
102
RTVSPost2010PropOp49
 70
     1
102
RTVSPost2010Prop50
 90
       50
102
RTVSPost2010PropOp50
 70
     1
102
RTVSPost2010Prop51ColorIndex
 90
      256
102
RTVSPost2010Prop51ColorRGB
 90
-16777216
102
RTVSPost2010PropOp51
 70
     0
102
RTVSPost2010Prop52
140
1.0
102
RTVSPost2010PropOp52
 70
     0
102
RTVSPost2010Prop53
 90
        2
102
RTVSPost2010PropOp53
 70
     1
102
RTVSPost2010Prop54
  1
strokes_ogs.tif
102
RTVSPost2010PropOp54
 70
     1
102
RTVSPost2010Prop55
280
     0
102
RTVSPost2010PropOp55
 70
     1
102
RTVSPost2010Prop56
140
1.0
102
RTVSPost2010PropOp56
 70
     1
102
RTVSPost2010Prop57
140
1.0
102
RTVSPost2010PropOp57
 70
     1
102
RTVSPropertyOp0
 70
     1
102
RTVSPropertyOp1
 70
     1
102
RTVSPropertyOp2
 70
     1
102
RTVSPropertyOp3
 70
     1
102
RTVSPropertyOp4
 70
     1
102
RTVSPropertyOp5
 70
     1
102
RTVSPropertyOp6
 70
     1
102
RTVSPropertyOp7
 70
     1
102
RTVSPropertyOp8
 70
     1
102
RTVSPropertyOp9
 70
     1
102
RTVSPropertyOp10
 70
     1
102
RTVSPropertyOp11
 70
     1
102
RTVSPropertyOp12
 70
     1
102
RTVSPropertyOp13
 70
     1
102
RTVSPropertyOp14
 70
     1
102
RTVSPropertyOp15
 70
     1
102
RTVSPropertyOp16
 70
     1
102
RTVSPropertyOp17
 70
     1
102
RTVSPropertyOp18
 70
     1
102
RTVSPropertyOp19
 70
     1
102
RTVSPropertyOp20
 70
     1
102
RTVSPropertyOp21
 70
     1
102
RTVSPropertyOp22
 70
     1
102
RTVSPropertyOp23
 70
     1
102
RTVSPropertyOp24
 70
     1
102
RTVSPropertyOp25
 70
     1
102
RTVSPropertyOp26
 70
     1
102
RTVSPropertyOp27
 70
     1
102
RTVSPropertyOp28
 70
     1
102
RTVSPropertyOp29
 70
     1
102
RTVSPropertyOp30
 70
     1
102
RTVSPropertyOp31
 70
     1
102
RTVSPropertyOp32
 70
     1
102
RTVSPropertyOp33
 70
     1
102
RTVSPropertyOp34
 70
     1
102
RTVSPropertyOp35
 70
     1
102
RTVSPropertyOp36
 70
     1
102
RTVSPropertyOp37
 70
     1
102
RTVSPropertyOp38
 70
     1
102
RTVSPropertyOp39
 70
     1
102
RTVSPropertyOp40
 70
     1
102
RTVSPropertyOp41
 70
     1
102
RTVSPropertyOp42
 70
     1
102
RTVSPropertyOp43
 70
     1
102
RTVSPropertyOp44
 70
     1
102
RTVSPropertyOp45
 70
     1
102
RTVSPropertyOp46
 70
     1
102
RTVSPropertyOp47
 70
     1
102
RTVSPropertyOp48
 70
     1
102
RTVSPropertyOp49
 70
     1
102
RTVSPropertyOp50
 70
     1
102
RTVSPropertyOp51
 70
     0
102
RTVSPropertyOp52
 70
     0
102
RTVSPropertyOp53
 70
     1
102
RTVSPropertyOp54
 70
     1
102
RTVSPropertyOp55
 70
     1
102
RTVSPropertyOp56
 70
     1
102
RTVSPropertyOp57
 70
     1
102
RTVSPropertyOp58
 70
     1
102
RTVSPropertyOp59
 70
     1
102
RTVSPropertyOp60
 70
     1
102
RTVSPropertyOp61
 70
     1
102
RTVSPropertyOp62
 70
     1
  0
XRECORD
  5
2AD0
102
{ACAD_REACTORS
330
2ACF
102
}
330
2ACF
100
AcDbXrecord
280
     1
102
RTVSPost2010Prop28
280
     0
102
RTVSPost2010PropOp28
 70
     1
102
RTVSPost2010Prop29
280
     1
102
RTVSPost2010PropOp29
 70
     1
102
RTVSPost2010Prop30
280
     1
102
RTVSPost2010PropOp30
 70
     1
102
RTVSPost2010Prop31
280
     0
102
RTVSPost2010PropOp31
 70
     1
102
RTVSPost2010Prop32
280
     0
102
RTVSPost2010PropOp32
 70
     1
102
RTVSPost2010Prop33
280
     0
102
RTVSPost2010PropOp33
 70
     1
102
RTVSPost2010Prop34
280
     0
102
RTVSPost2010PropOp34
 70
     1
102
RTVSPost2010Prop35
280
     0
102
RTVSPost2010PropOp35
 70
     1
102
RTVSPost2010Prop36
280
     0
102
RTVSPost2010PropOp36
 70
     1
102
RTVSPost2010Prop37
 90
       50
102
RTVSPost2010PropOp37
 70
     1
102
RTVSPost2010Prop38
140
0.0
102
RTVSPost2010PropOp38
 70
     1
102
RTVSPost2010Prop39
140
1.0
102
RTVSPost2010PropOp39
 70
     1
102
RTVSPost2010Prop40
 90
        0
102
RTVSPost2010PropOp40
 70
     1
102
RTVSPost2010Prop41ColorIndex
 90
       18
102
RTVSPost2010Prop41ColorRGB
 90
        0
102
RTVSPost2010PropOp41
 70
     1
102
RTVSPost2010Prop42
 90
       50
102
RTVSPost2010PropOp42
 70
     1
102
RTVSPost2010Prop43
 90
        3
102
RTVSPost2010PropOp43
 70
     1
102
RTVSPost2010Prop44ColorIndex
 90
        5
102
RTVSPost2010Prop44ColorRGB
 90
      255
102
RTVSPost2010PropOp44
 70
     1
102
RTVSPost2010Prop45
280
     0
102
RTVSPost2010PropOp45
 70
     1
102
RTVSPost2010Prop46
 90
       50
102
RTVSPost2010PropOp46
 70
     1
102
RTVSPost2010Prop47
 90
       50
102
RTVSPost2010PropOp47
 70
     1
102
RTVSPost2010Prop48
 90
       50
102
RTVSPost2010PropOp48
 70
     1
102
RTVSPost2010Prop49
280
     0
102
RTVSPost2010PropOp49
 70
     1
102
RTVSPost2010Prop50
 90
       50
102
RTVSPost2010PropOp50
 70
     1
102
RTVSPost2010Prop51ColorIndex
 90
      256
102
RTVSPost2010Prop51ColorRGB
 90
-16777216
102
RTVSPost2010PropOp51
 70
     0
102
RTVSPost2010Prop52
140
1.0
102
RTVSPost2010PropOp52
 70
     0
102
RTVSPost2010Prop53
 90
        2
102
RTVSPost2010PropOp53
 70
     1
102
RTVSPost2010Prop54
  1
strokes_ogs.tif
102
RTVSPost2010PropOp54
 70
     1
102
RTVSPost2010Prop55
280
     0
102
RTVSPost2010PropOp55
 70
     1
102
RTVSPost2010Prop56
140
1.0
102
RTVSPost2010PropOp56
 70
     1
102
RTVSPost2010Prop57
140
1.0
102
RTVSPost2010PropOp57
 70
     1
102
RTVSPropertyOp0
 70
     1
102
RTVSPropertyOp1
 70
     1
102
RTVSPropertyOp2
 70
     1
102
RTVSPropertyOp3
 70
     1
102
RTVSPropertyOp4
 70
     1
102
RTVSPropertyOp5
 70
     1
102
RTVSPropertyOp6
 70
     1
102
RTVSPropertyOp7
 70
     1
102
RTVSPropertyOp8
 70
     1
102
RTVSPropertyOp9
 70
     1
102
RTVSPropertyOp10
 70
     1
102
RTVSPropertyOp11
 70
     1
102
RTVSPropertyOp12
 70
     1
102
RTVSPropertyOp13
 70
     1
102
RTVSPropertyOp14
 70
     1
102
RTVSPropertyOp15
 70
     1
102
RTVSPropertyOp16
 70
     1
102
RTVSPropertyOp17
 70
     1
102
RTVSPropertyOp18
 70
     1
102
RTVSPropertyOp19
 70
     1
102
RTVSPropertyOp20
 70
     1
102
RTVSPropertyOp21
 70
     1
102
RTVSPropertyOp22
 70
     1
102
RTVSPropertyOp23
 70
     1
102
RTVSPropertyOp24
 70
     1
102
RTVSPropertyOp25
 70
     1
102
RTVSPropertyOp26
 70
     1
102
RTVSPropertyOp27
 70
     1
102
RTVSPropertyOp28
 70
     1
102
RTVSPropertyOp29
 70
     1
102
RTVSPropertyOp30
 70
     1
102
RTVSPropertyOp31
 70
     1
102
RTVSPropertyOp32
 70
     1
102
RTVSPropertyOp33
 70
     1
102
RTVSPropertyOp34
 70
     1
102
RTVSPropertyOp35
 70
     1
102
RTVSPropertyOp36
 70
     1
102
RTVSPropertyOp37
 70
     1
102
RTVSPropertyOp38
 70
     1
102
RTVSPropertyOp39
 70
     1
102
RTVSPropertyOp40
 70
     1
102
RTVSPropertyOp41
 70
     1
102
RTVSPropertyOp42
 70
     1
102
RTVSPropertyOp43
 70
     1
102
RTVSPropertyOp44
 70
     1
102
RTVSPropertyOp45
 70
     1
102
RTVSPropertyOp46
 70
     1
102
RTVSPropertyOp47
 70
     1
102
RTVSPropertyOp48
 70
     1
102
RTVSPropertyOp49
 70
     1
102
RTVSPropertyOp50
 70
     1
102
RTVSPropertyOp51
 70
     0
102
RTVSPropertyOp52
 70
     0
102
RTVSPropertyOp53
 70
     1
102
RTVSPropertyOp54
 70
     1
102
RTVSPropertyOp55
 70
     1
102
RTVSPropertyOp56
 70
     1
102
RTVSPropertyOp57
 70
     1
102
RTVSPropertyOp58
 70
     1
102
RTVSPropertyOp59
 70
     1
102
RTVSPropertyOp60
 70
     1
102
RTVSPropertyOp61
 70
     1
102
RTVSPropertyOp62
 70
     1
  0
XRECORD
  5
2AD2
102
{ACAD_REACTORS
330
2AD1
102
}
330
2AD1
100
AcDbXrecord
280
     1
102
RTVSPost2010Prop28
280
     0
102
RTVSPost2010PropOp28
 70
     1
102
RTVSPost2010Prop29
280
     1
102
RTVSPost2010PropOp29
 70
     1
102
RTVSPost2010Prop30
280
     1
102
RTVSPost2010PropOp30
 70
     1
102
RTVSPost2010Prop31
280
     0
102
RTVSPost2010PropOp31
 70
     1
102
RTVSPost2010Prop32
280
     0
102
RTVSPost2010PropOp32
 70
     1
102
RTVSPost2010Prop33
280
     0
102
RTVSPost2010PropOp33
 70
     1
102
RTVSPost2010Prop34
280
     0
102
RTVSPost2010PropOp34
 70
     1
102
RTVSPost2010Prop35
280
     0
102
RTVSPost2010PropOp35
 70
     1
102
RTVSPost2010Prop36
280
     0
102
RTVSPost2010PropOp36
 70
     1
102
RTVSPost2010Prop37
 90
       50
102
RTVSPost2010PropOp37
 70
     1
102
RTVSPost2010Prop38
140
0.0
102
RTVSPost2010PropOp38
 70
     1
102
RTVSPost2010Prop39
140
1.0
102
RTVSPost2010PropOp39
 70
     1
102
RTVSPost2010Prop40
 90
        0
102
RTVSPost2010PropOp40
 70
     1
102
RTVSPost2010Prop41ColorIndex
 90
       18
102
RTVSPost2010Prop41ColorRGB
 90
        0
102
RTVSPost2010PropOp41
 70
     1
102
RTVSPost2010Prop42
 90
       50
102
RTVSPost2010PropOp42
 70
     1
102
RTVSPost2010Prop43
 90
        3
102
RTVSPost2010PropOp43
 70
     1
102
RTVSPost2010Prop44ColorIndex
 90
        5
102
RTVSPost2010Prop44ColorRGB
 90
      255
102
RTVSPost2010PropOp44
 70
     1
102
RTVSPost2010Prop45
280
     0
102
RTVSPost2010PropOp45
 70
     1
102
RTVSPost2010Prop46
 90
       50
102
RTVSPost2010PropOp46
 70
     1
102
RTVSPost2010Prop47
 90
       50
102
RTVSPost2010PropOp47
 70
     1
102
RTVSPost2010Prop48
 90
       50
102
RTVSPost2010PropOp48
 70
     1
102
RTVSPost2010Prop49
280
     0
102
RTVSPost2010PropOp49
 70
     1
102
RTVSPost2010Prop50
 90
       50
102
RTVSPost2010PropOp50
 70
     1
102
RTVSPost2010Prop51ColorIndex
 90
      256
102
RTVSPost2010Prop51ColorRGB
 90
-16777216
102
RTVSPost2010PropOp51
 70
     0
102
RTVSPost2010Prop52
140
1.0
102
RTVSPost2010PropOp52
 70
     0
102
RTVSPost2010Prop53
 90
        2
102
RTVSPost2010PropOp53
 70
     1
102
RTVSPost2010Prop54
  1
strokes_ogs.tif
102
RTVSPost2010PropOp54
 70
     1
102
RTVSPost2010Prop55
280
     0
102
RTVSPost2010PropOp55
 70
     1
102
RTVSPost2010Prop56
140
1.0
102
RTVSPost2010PropOp56
 70
     1
102
RTVSPost2010Prop57
140
1.0
102
RTVSPost2010PropOp57
 70
     1
102
RTVSPropertyOp0
 70
     1
102
RTVSPropertyOp1
 70
     1
102
RTVSPropertyOp2
 70
     1
102
RTVSPropertyOp3
 70
     1
102
RTVSPropertyOp4
 70
     1
102
RTVSPropertyOp5
 70
     1
102
RTVSPropertyOp6
 70
     1
102
RTVSPropertyOp7
 70
     1
102
RTVSPropertyOp8
 70
     1
102
RTVSPropertyOp9
 70
     1
102
RTVSPropertyOp10
 70
     1
102
RTVSPropertyOp11
 70
     1
102
RTVSPropertyOp12
 70
     1
102
RTVSPropertyOp13
 70
     1
102
RTVSPropertyOp14
 70
     1
102
RTVSPropertyOp15
 70
     1
102
RTVSPropertyOp16
 70
     1
102
RTVSPropertyOp17
 70
     1
102
RTVSPropertyOp18
 70
     1
102
RTVSPropertyOp19
 70
     1
102
RTVSPropertyOp20
 70
     1
102
RTVSPropertyOp21
 70
     1
102
RTVSPropertyOp22
 70
     1
102
RTVSPropertyOp23
 70
     1
102
RTVSPropertyOp24
 70
     1
102
RTVSPropertyOp25
 70
     1
102
RTVSPropertyOp26
 70
     1
102
RTVSPropertyOp27
 70
     1
102
RTVSPropertyOp28
 70
     1
102
RTVSPropertyOp29
 70
     1
102
RTVSPropertyOp30
 70
     1
102
RTVSPropertyOp31
 70
     1
102
RTVSPropertyOp32
 70
     1
102
RTVSPropertyOp33
 70
     1
102
RTVSPropertyOp34
 70
     1
102
RTVSPropertyOp35
 70
     1
102
RTVSPropertyOp36
 70
     1
102
RTVSPropertyOp37
 70
     1
102
RTVSPropertyOp38
 70
     1
102
RTVSPropertyOp39
 70
     1
102
RTVSPropertyOp40
 70
     1
102
RTVSPropertyOp41
 70
     1
102
RTVSPropertyOp42
 70
     1
102
RTVSPropertyOp43
 70
     1
102
RTVSPropertyOp44
 70
     1
102
RTVSPropertyOp45
 70
     1
102
RTVSPropertyOp46
 70
     1
102
RTVSPropertyOp47
 70
     1
102
RTVSPropertyOp48
 70
     1
102
RTVSPropertyOp49
 70
     1
102
RTVSPropertyOp50
 70
     1
102
RTVSPropertyOp51
 70
     0
102
RTVSPropertyOp52
 70
     0
102
RTVSPropertyOp53
 70
     1
102
RTVSPropertyOp54
 70
     1
102
RTVSPropertyOp55
 70
     1
102
RTVSPropertyOp56
 70
     1
102
RTVSPropertyOp57
 70
     1
102
RTVSPropertyOp58
 70
     1
102
RTVSPropertyOp59
 70
     1
102
RTVSPropertyOp60
 70
     1
102
RTVSPropertyOp61
 70
     1
102
RTVSPropertyOp62
 70
     1
  0
XRECORD
  5
2ABE
102
{ACAD_REACTORS
330
2ABD
102
}
330
2ABD
100
AcDbXrecord
280
     1
102
RTVSPost2010Prop28
280
     0
102
RTVSPost2010PropOp28
 70
     1
102
RTVSPost2010Prop29
280
     1
102
RTVSPost2010PropOp29
 70
     1
102
RTVSPost2010Prop30
280
     1
102
RTVSPost2010PropOp30
 70
     1
102
RTVSPost2010Prop31
280
     0
102
RTVSPost2010PropOp31
 70
     1
102
RTVSPost2010Prop32
280
     0
102
RTVSPost2010PropOp32
 70
     1
102
RTVSPost2010Prop33
280
     0
102
RTVSPost2010PropOp33
 70
     1
102
RTVSPost2010Prop34
280
     0
102
RTVSPost2010PropOp34
 70
     1
102
RTVSPost2010Prop35
280
     0
102
RTVSPost2010PropOp35
 70
     1
102
RTVSPost2010Prop36
280
     0
102
RTVSPost2010PropOp36
 70
     1
102
RTVSPost2010Prop37
 90
       50
102
RTVSPost2010PropOp37
 70
     1
102
RTVSPost2010Prop38
140
0.0
102
RTVSPost2010PropOp38
 70
     1
102
RTVSPost2010Prop39
140
1.0
102
RTVSPost2010PropOp39
 70
     1
102
RTVSPost2010Prop40
 90
        0
102
RTVSPost2010PropOp40
 70
     1
102
RTVSPost2010Prop41ColorIndex
 90
       18
102
RTVSPost2010Prop41ColorRGB
 90
        0
102
RTVSPost2010PropOp41
 70
     1
102
RTVSPost2010Prop42
 90
       50
102
RTVSPost2010PropOp42
 70
     1
102
RTVSPost2010Prop43
 90
        3
102
RTVSPost2010PropOp43
 70
     1
102
RTVSPost2010Prop44ColorIndex
 90
        5
102
RTVSPost2010Prop44ColorRGB
 90
      255
102
RTVSPost2010PropOp44
 70
     1
102
RTVSPost2010Prop45
280
     0
102
RTVSPost2010PropOp45
 70
     1
102
RTVSPost2010Prop46
 90
       50
102
RTVSPost2010PropOp46
 70
     1
102
RTVSPost2010Prop47
 90
       50
102
RTVSPost2010PropOp47
 70
     1
102
RTVSPost2010Prop48
 90
       50
102
RTVSPost2010PropOp48
 70
     1
102
RTVSPost2010Prop49
280
     0
102
RTVSPost2010PropOp49
 70
     1
102
RTVSPost2010Prop50
 90
       50
102
RTVSPost2010PropOp50
 70
     1
102
RTVSPost2010Prop51ColorIndex
 90
      256
102
RTVSPost2010Prop51ColorRGB
 90
-16777216
102
RTVSPost2010PropOp51
 70
     0
102
RTVSPost2010Prop52
140
1.0
102
RTVSPost2010PropOp52
 70
     0
102
RTVSPost2010Prop53
 90
        2
102
RTVSPost2010PropOp53
 70
     1
102
RTVSPost2010Prop54
  1
strokes_ogs.tif
102
RTVSPost2010PropOp54
 70
     1
102
RTVSPost2010Prop55
280
     0
102
RTVSPost2010PropOp55
 70
     1
102
RTVSPost2010Prop56
140
1.0
102
RTVSPost2010PropOp56
 70
     1
102
RTVSPost2010Prop57
140
1.0
102
RTVSPost2010PropOp57
 70
     1
102
RTVSPropertyOp0
 70
     1
102
RTVSPropertyOp1
 70
     1
102
RTVSPropertyOp2
 70
     1
102
RTVSPropertyOp3
 70
     1
102
RTVSPropertyOp4
 70
     1
102
RTVSPropertyOp5
 70
     1
102
RTVSPropertyOp6
 70
     1
102
RTVSPropertyOp7
 70
     1
102
RTVSPropertyOp8
 70
     1
102
RTVSPropertyOp9
 70
     1
102
RTVSPropertyOp10
 70
     1
102
RTVSPropertyOp11
 70
     1
102
RTVSPropertyOp12
 70
     1
102
RTVSPropertyOp13
 70
     1
102
RTVSPropertyOp14
 70
     1
102
RTVSPropertyOp15
 70
     1
102
RTVSPropertyOp16
 70
     1
102
RTVSPropertyOp17
 70
     1
102
RTVSPropertyOp18
 70
     1
102
RTVSPropertyOp19
 70
     1
102
RTVSPropertyOp20
 70
     1
102
RTVSPropertyOp21
 70
     1
102
RTVSPropertyOp22
 70
     1
102
RTVSPropertyOp23
 70
     1
102
RTVSPropertyOp24
 70
     1
102
RTVSPropertyOp25
 70
     1
102
RTVSPropertyOp26
 70
     1
102
RTVSPropertyOp27
 70
     1
102
RTVSPropertyOp28
 70
     1
102
RTVSPropertyOp29
 70
     1
102
RTVSPropertyOp30
 70
     1
102
RTVSPropertyOp31
 70
     1
102
RTVSPropertyOp32
 70
     1
102
RTVSPropertyOp33
 70
     1
102
RTVSPropertyOp34
 70
     1
102
RTVSPropertyOp35
 70
     1
102
RTVSPropertyOp36
 70
     1
102
RTVSPropertyOp37
 70
     1
102
RTVSPropertyOp38
 70
     1
102
RTVSPropertyOp39
 70
     1
102
RTVSPropertyOp40
 70
     1
102
RTVSPropertyOp41
 70
     1
102
RTVSPropertyOp42
 70
     1
102
RTVSPropertyOp43
 70
     1
102
RTVSPropertyOp44
 70
     1
102
RTVSPropertyOp45
 70
     1
102
RTVSPropertyOp46
 70
     1
102
RTVSPropertyOp47
 70
     1
102
RTVSPropertyOp48
 70
     1
102
RTVSPropertyOp49
 70
     1
102
RTVSPropertyOp50
 70
     1
102
RTVSPropertyOp51
 70
     0
102
RTVSPropertyOp52
 70
     0
102
RTVSPropertyOp53
 70
     1
102
RTVSPropertyOp54
 70
     1
102
RTVSPropertyOp55
 70
     1
102
RTVSPropertyOp56
 70
     1
102
RTVSPropertyOp57
 70
     1
102
RTVSPropertyOp58
 70
     1
102
RTVSPropertyOp59
 70
     1
102
RTVSPropertyOp60
 70
     1
102
RTVSPropertyOp61
 70
     1
102
RTVSPropertyOp62
 70
     1
  0
XRECORD
  5
2ACC
102
{ACAD_REACTORS
330
2ACB
102
}
330
2ACB
100
AcDbXrecord
280
     1
102
RTVSPost2010Prop28
280
     0
102
RTVSPost2010PropOp28
 70
     1
102
RTVSPost2010Prop29
280
     1
102
RTVSPost2010PropOp29
 70
     1
102
RTVSPost2010Prop30
280
     1
102
RTVSPost2010PropOp30
 70
     1
102
RTVSPost2010Prop31
280
     0
102
RTVSPost2010PropOp31
 70
     1
102
RTVSPost2010Prop32
280
     0
102
RTVSPost2010PropOp32
 70
     1
102
RTVSPost2010Prop33
280
     0
102
RTVSPost2010PropOp33
 70
     1
102
RTVSPost2010Prop34
280
     0
102
RTVSPost2010PropOp34
 70
     1
102
RTVSPost2010Prop35
280
     0
102
RTVSPost2010PropOp35
 70
     1
102
RTVSPost2010Prop36
280
     0
102
RTVSPost2010PropOp36
 70
     1
102
RTVSPost2010Prop37
 90
       50
102
RTVSPost2010PropOp37
 70
     1
102
RTVSPost2010Prop38
140
0.0
102
RTVSPost2010PropOp38
 70
     1
102
RTVSPost2010Prop39
140
1.0
102
RTVSPost2010PropOp39
 70
     1
102
RTVSPost2010Prop40
 90
        0
102
RTVSPost2010PropOp40
 70
     1
102
RTVSPost2010Prop41ColorIndex
 90
       18
102
RTVSPost2010Prop41ColorRGB
 90
        0
102
RTVSPost2010PropOp41
 70
     1
102
RTVSPost2010Prop42
 90
       50
102
RTVSPost2010PropOp42
 70
     1
102
RTVSPost2010Prop43
 90
        3
102
RTVSPost2010PropOp43
 70
     1
102
RTVSPost2010Prop44ColorIndex
 90
        5
102
RTVSPost2010Prop44ColorRGB
 90
      255
102
RTVSPost2010PropOp44
 70
     1
102
RTVSPost2010Prop45
280
     0
102
RTVSPost2010PropOp45
 70
     1
102
RTVSPost2010Prop46
 90
       50
102
RTVSPost2010PropOp46
 70
     1
102
RTVSPost2010Prop47
 90
       50
102
RTVSPost2010PropOp47
 70
     1
102
RTVSPost2010Prop48
 90
       50
102
RTVSPost2010PropOp48
 70
     1
102
RTVSPost2010Prop49
280
     0
102
RTVSPost2010PropOp49
 70
     1
102
RTVSPost2010Prop50
 90
       50
102
RTVSPost2010PropOp50
 70
     1
102
RTVSPost2010Prop51ColorIndex
 90
      256
102
RTVSPost2010Prop51ColorRGB
 90
-16777216
102
RTVSPost2010PropOp51
 70
     0
102
RTVSPost2010Prop52
140
1.0
102
RTVSPost2010PropOp52
 70
     0
102
RTVSPost2010Prop53
 90
        2
102
RTVSPost2010PropOp53
 70
     1
102
RTVSPost2010Prop54
  1
strokes_ogs.tif
102
RTVSPost2010PropOp54
 70
     1
102
RTVSPost2010Prop55
280
     0
102
RTVSPost2010PropOp55
 70
     1
102
RTVSPost2010Prop56
140
1.0
102
RTVSPost2010PropOp56
 70
     1
102
RTVSPost2010Prop57
140
1.0
102
RTVSPost2010PropOp57
 70
     1
102
RTVSPropertyOp0
 70
     1
102
RTVSPropertyOp1
 70
     1
102
RTVSPropertyOp2
 70
     1
102
RTVSPropertyOp3
 70
     1
102
RTVSPropertyOp4
 70
     1
102
RTVSPropertyOp5
 70
     1
102
RTVSPropertyOp6
 70
     1
102
RTVSPropertyOp7
 70
     1
102
RTVSPropertyOp8
 70
     1
102
RTVSPropertyOp9
 70
     1
102
RTVSPropertyOp10
 70
     1
102
RTVSPropertyOp11
 70
     1
102
RTVSPropertyOp12
 70
     1
102
RTVSPropertyOp13
 70
     1
102
RTVSPropertyOp14
 70
     1
102
RTVSPropertyOp15
 70
     1
102
RTVSPropertyOp16
 70
     1
102
RTVSPropertyOp17
 70
     1
102
RTVSPropertyOp18
 70
     1
102
RTVSPropertyOp19
 70
     1
102
RTVSPropertyOp20
 70
     1
102
RTVSPropertyOp21
 70
     1
102
RTVSPropertyOp22
 70
     1
102
RTVSPropertyOp23
 70
     1
102
RTVSPropertyOp24
 70
     1
102
RTVSPropertyOp25
 70
     1
102
RTVSPropertyOp26
 70
     1
102
RTVSPropertyOp27
 70
     1
102
RTVSPropertyOp28
 70
     1
102
RTVSPropertyOp29
 70
     1
102
RTVSPropertyOp30
 70
     1
102
RTVSPropertyOp31
 70
     1
102
RTVSPropertyOp32
 70
     1
102
RTVSPropertyOp33
 70
     1
102
RTVSPropertyOp34
 70
     1
102
RTVSPropertyOp35
 70
     1
102
RTVSPropertyOp36
 70
     1
102
RTVSPropertyOp37
 70
     1
102
RTVSPropertyOp38
 70
     1
102
RTVSPropertyOp39
 70
     1
102
RTVSPropertyOp40
 70
     1
102
RTVSPropertyOp41
 70
     1
102
RTVSPropertyOp42
 70
     1
102
RTVSPropertyOp43
 70
     1
102
RTVSPropertyOp44
 70
     1
102
RTVSPropertyOp45
 70
     1
102
RTVSPropertyOp46
 70
     1
102
RTVSPropertyOp47
 70
     1
102
RTVSPropertyOp48
 70
     1
102
RTVSPropertyOp49
 70
     1
102
RTVSPropertyOp50
 70
     1
102
RTVSPropertyOp51
 70
     0
102
RTVSPropertyOp52
 70
     0
102
RTVSPropertyOp53
 70
     1
102
RTVSPropertyOp54
 70
     1
102
RTVSPropertyOp55
 70
     1
102
RTVSPropertyOp56
 70
     1
102
RTVSPropertyOp57
 70
     1
102
RTVSPropertyOp58
 70
     1
102
RTVSPropertyOp59
 70
     1
102
RTVSPropertyOp60
 70
     1
102
RTVSPropertyOp61
 70
     1
102
RTVSPropertyOp62
 70
     1
  0
XRECORD
  5
2AD4
102
{ACAD_REACTORS
330
2AD3
102
}
330
2AD3
100
AcDbXrecord
280
     1
102
RTVSPost2010Prop28
280
     0
102
RTVSPost2010PropOp28
 70
     1
102
RTVSPost2010Prop29
280
     1
102
RTVSPost2010PropOp29
 70
     1
102
RTVSPost2010Prop30
280
     1
102
RTVSPost2010PropOp30
 70
     1
102
RTVSPost2010Prop31
280
     0
102
RTVSPost2010PropOp31
 70
     1
102
RTVSPost2010Prop32
280
     0
102
RTVSPost2010PropOp32
 70
     1
102
RTVSPost2010Prop33
280
     0
102
RTVSPost2010PropOp33
 70
     1
102
RTVSPost2010Prop34
280
     0
102
RTVSPost2010PropOp34
 70
     1
102
RTVSPost2010Prop35
280
     0
102
RTVSPost2010PropOp35
 70
     1
102
RTVSPost2010Prop36
280
     0
102
RTVSPost2010PropOp36
 70
     1
102
RTVSPost2010Prop37
 90
       50
102
RTVSPost2010PropOp37
 70
     1
102
RTVSPost2010Prop38
140
0.0
102
RTVSPost2010PropOp38
 70
     1
102
RTVSPost2010Prop39
140
1.0
102
RTVSPost2010PropOp39
 70
     1
102
RTVSPost2010Prop40
 90
        0
102
RTVSPost2010PropOp40
 70
     1
102
RTVSPost2010Prop41ColorIndex
 90
       18
102
RTVSPost2010Prop41ColorRGB
 90
        0
102
RTVSPost2010PropOp41
 70
     1
102
RTVSPost2010Prop42
 90
       50
102
RTVSPost2010PropOp42
 70
     1
102
RTVSPost2010Prop43
 90
        3
102
RTVSPost2010PropOp43
 70
     1
102
RTVSPost2010Prop44ColorIndex
 90
        5
102
RTVSPost2010Prop44ColorRGB
 90
      255
102
RTVSPost2010PropOp44
 70
     1
102
RTVSPost2010Prop45
280
     0
102
RTVSPost2010PropOp45
 70
     1
102
RTVSPost2010Prop46
 90
       50
102
RTVSPost2010PropOp46
 70
     1
102
RTVSPost2010Prop47
 90
       50
102
RTVSPost2010PropOp47
 70
     1
102
RTVSPost2010Prop48
 90
       50
102
RTVSPost2010PropOp48
 70
     1
102
RTVSPost2010Prop49
280
     0
102
RTVSPost2010PropOp49
 70
     1
102
RTVSPost2010Prop50
 90
       50
102
RTVSPost2010PropOp50
 70
     1
102
RTVSPost2010Prop51ColorIndex
 90
      256
102
RTVSPost2010Prop51ColorRGB
 90
-16777216
102
RTVSPost2010PropOp51
 70
     0
102
RTVSPost2010Prop52
140
1.0
102
RTVSPost2010PropOp52
 70
     0
102
RTVSPost2010Prop53
 90
        2
102
RTVSPost2010PropOp53
 70
     1
102
RTVSPost2010Prop54
  1
strokes_ogs.tif
102
RTVSPost2010PropOp54
 70
     1
102
RTVSPost2010Prop55
280
     0
102
RTVSPost2010PropOp55
 70
     1
102
RTVSPost2010Prop56
140
1.0
102
RTVSPost2010PropOp56
 70
     1
102
RTVSPost2010Prop57
140
1.0
102
RTVSPost2010PropOp57
 70
     1
102
RTVSPropertyOp0
 70
     1
102
RTVSPropertyOp1
 70
     1
102
RTVSPropertyOp2
 70
     1
102
RTVSPropertyOp3
 70
     1
102
RTVSPropertyOp4
 70
     1
102
RTVSPropertyOp5
 70
     1
102
RTVSPropertyOp6
 70
     1
102
RTVSPropertyOp7
 70
     1
102
RTVSPropertyOp8
 70
     1
102
RTVSPropertyOp9
 70
     1
102
RTVSPropertyOp10
 70
     1
102
RTVSPropertyOp11
 70
     1
102
RTVSPropertyOp12
 70
     1
102
RTVSPropertyOp13
 70
     1
102
RTVSPropertyOp14
 70
     1
102
RTVSPropertyOp15
 70
     1
102
RTVSPropertyOp16
 70
     1
102
RTVSPropertyOp17
 70
     1
102
RTVSPropertyOp18
 70
     1
102
RTVSPropertyOp19
 70
     1
102
RTVSPropertyOp20
 70
     1
102
RTVSPropertyOp21
 70
     1
102
RTVSPropertyOp22
 70
     1
102
RTVSPropertyOp23
 70
     1
102
RTVSPropertyOp24
 70
     1
102
RTVSPropertyOp25
 70
     1
102
RTVSPropertyOp26
 70
     1
102
RTVSPropertyOp27
 70
     1
102
RTVSPropertyOp28
 70
     1
102
RTVSPropertyOp29
 70
     1
102
RTVSPropertyOp30
 70
     1
102
RTVSPropertyOp31
 70
     1
102
RTVSPropertyOp32
 70
     1
102
RTVSPropertyOp33
 70
     1
102
RTVSPropertyOp34
 70
     1
102
RTVSPropertyOp35
 70
     1
102
RTVSPropertyOp36
 70
     1
102
RTVSPropertyOp37
 70
     1
102
RTVSPropertyOp38
 70
     1
102
RTVSPropertyOp39
 70
     1
102
RTVSPropertyOp40
 70
     1
102
RTVSPropertyOp41
 70
     1
102
RTVSPropertyOp42
 70
     1
102
RTVSPropertyOp43
 70
     1
102
RTVSPropertyOp44
 70
     1
102
RTVSPropertyOp45
 70
     1
102
RTVSPropertyOp46
 70
     1
102
RTVSPropertyOp47
 70
     1
102
RTVSPropertyOp48
 70
     1
102
RTVSPropertyOp49
 70
     1
102
RTVSPropertyOp50
 70
     1
102
RTVSPropertyOp51
 70
     0
102
RTVSPropertyOp52
 70
     0
102
RTVSPropertyOp53
 70
     1
102
RTVSPropertyOp54
 70
     1
102
RTVSPropertyOp55
 70
     1
102
RTVSPropertyOp56
 70
     1
102
RTVSPropertyOp57
 70
     1
102
RTVSPropertyOp58
 70
     1
102
RTVSPropertyOp59
 70
     1
102
RTVSPropertyOp60
 70
     1
102
RTVSPropertyOp61
 70
     1
102
RTVSPropertyOp62
 70
     1
  0
ENDSEC
  0
EOF
